ISO-10303-21;
HEADER;
/* Generated by software containing ST-Developer
 * from STEP Tools, Inc. (www.steptools.com) 
 */
/* OPTION: using custom renumber hook */

FILE_DESCRIPTION(
/* description */ ('STEP AP203'),
/* implementation_level */ '2;1');

FILE_NAME(
/* name */ 'LM10LUU-MX',
/* time_stamp */ '2022-08-23T02:43:30+02:00',
/* author */ ('License CC BY-ND 4.0'),
/* organization */ ('CADENAS'),
/* preprocessor_version */ 'ST-DEVELOPER v18.102',
/* originating_system */ 'PARTsolutions',
/* authorisation */ '  ');

FILE_SCHEMA (('CONFIG_CONTROL_DESIGN'));
ENDSEC;

DATA;
#10=PROPERTY_DEFINITION_REPRESENTATION(#14,#12);
#11=PROPERTY_DEFINITION_REPRESENTATION(#15,#13);
#12=REPRESENTATION('',(#16),#597);
#13=REPRESENTATION('',(#17),#597);
#14=PROPERTY_DEFINITION('pmi validation property','',#602);
#15=PROPERTY_DEFINITION('pmi validation property','',#602);
#16=VALUE_REPRESENTATION_ITEM('number of annotations',COUNT_MEASURE(0.));
#17=VALUE_REPRESENTATION_ITEM('number of views',COUNT_MEASURE(0.));
#18=SHAPE_REPRESENTATION_RELATIONSHIP('','',#339,#19);
#19=ADVANCED_BREP_SHAPE_REPRESENTATION('',(#337),#597);
#20=CYLINDRICAL_SURFACE('',#346,5.3);
#21=CYLINDRICAL_SURFACE('',#350,5.6);
#22=CYLINDRICAL_SURFACE('',#354,5.);
#23=CYLINDRICAL_SURFACE('',#358,5.6);
#24=CYLINDRICAL_SURFACE('',#362,5.29999999999999);
#25=CYLINDRICAL_SURFACE('',#368,9.5);
#26=CYLINDRICAL_SURFACE('',#374,9.5);
#27=CYLINDRICAL_SURFACE('',#378,9.);
#28=CYLINDRICAL_SURFACE('',#382,9.5);
#29=CYLINDRICAL_SURFACE('',#386,9.);
#30=CYLINDRICAL_SURFACE('',#390,9.5);
#31=CYLINDRICAL_SURFACE('',#396,9.5);
#32=PLANE('',#344);
#33=PLANE('',#348);
#34=PLANE('',#352);
#35=PLANE('',#356);
#36=PLANE('',#360);
#37=PLANE('',#364);
#38=PLANE('',#370);
#39=PLANE('',#376);
#40=PLANE('',#380);
#41=PLANE('',#384);
#42=PLANE('',#388);
#43=PLANE('',#394);
#44=ORIENTED_EDGE('',*,*,#100,.T.);
#45=ORIENTED_EDGE('',*,*,#101,.F.);
#46=ORIENTED_EDGE('',*,*,#102,.T.);
#47=ORIENTED_EDGE('',*,*,#100,.F.);
#48=ORIENTED_EDGE('',*,*,#103,.T.);
#49=ORIENTED_EDGE('',*,*,#102,.F.);
#50=ORIENTED_EDGE('',*,*,#104,.T.);
#51=ORIENTED_EDGE('',*,*,#103,.F.);
#52=ORIENTED_EDGE('',*,*,#105,.T.);
#53=ORIENTED_EDGE('',*,*,#104,.F.);
#54=ORIENTED_EDGE('',*,*,#106,.T.);
#55=ORIENTED_EDGE('',*,*,#105,.F.);
#56=ORIENTED_EDGE('',*,*,#107,.T.);
#57=ORIENTED_EDGE('',*,*,#106,.F.);
#58=ORIENTED_EDGE('',*,*,#108,.T.);
#59=ORIENTED_EDGE('',*,*,#107,.F.);
#60=ORIENTED_EDGE('',*,*,#109,.T.);
#61=ORIENTED_EDGE('',*,*,#108,.F.);
#62=ORIENTED_EDGE('',*,*,#110,.T.);
#63=ORIENTED_EDGE('',*,*,#109,.F.);
#64=ORIENTED_EDGE('',*,*,#111,.T.);
#65=ORIENTED_EDGE('',*,*,#110,.F.);
#66=ORIENTED_EDGE('',*,*,#112,.T.);
#67=ORIENTED_EDGE('',*,*,#111,.F.);
#68=ORIENTED_EDGE('',*,*,#113,.T.);
#69=ORIENTED_EDGE('',*,*,#112,.F.);
#70=ORIENTED_EDGE('',*,*,#114,.T.);
#71=ORIENTED_EDGE('',*,*,#113,.F.);
#72=ORIENTED_EDGE('',*,*,#115,.T.);
#73=ORIENTED_EDGE('',*,*,#114,.F.);
#74=ORIENTED_EDGE('',*,*,#116,.T.);
#75=ORIENTED_EDGE('',*,*,#115,.F.);
#76=ORIENTED_EDGE('',*,*,#117,.T.);
#77=ORIENTED_EDGE('',*,*,#116,.F.);
#78=ORIENTED_EDGE('',*,*,#118,.T.);
#79=ORIENTED_EDGE('',*,*,#117,.F.);
#80=ORIENTED_EDGE('',*,*,#119,.T.);
#81=ORIENTED_EDGE('',*,*,#118,.F.);
#82=ORIENTED_EDGE('',*,*,#120,.T.);
#83=ORIENTED_EDGE('',*,*,#119,.F.);
#84=ORIENTED_EDGE('',*,*,#121,.T.);
#85=ORIENTED_EDGE('',*,*,#120,.F.);
#86=ORIENTED_EDGE('',*,*,#122,.T.);
#87=ORIENTED_EDGE('',*,*,#121,.F.);
#88=ORIENTED_EDGE('',*,*,#123,.T.);
#89=ORIENTED_EDGE('',*,*,#122,.F.);
#90=ORIENTED_EDGE('',*,*,#124,.T.);
#91=ORIENTED_EDGE('',*,*,#123,.F.);
#92=ORIENTED_EDGE('',*,*,#125,.T.);
#93=ORIENTED_EDGE('',*,*,#124,.F.);
#94=ORIENTED_EDGE('',*,*,#126,.T.);
#95=ORIENTED_EDGE('',*,*,#125,.F.);
#96=ORIENTED_EDGE('',*,*,#127,.T.);
#97=ORIENTED_EDGE('',*,*,#126,.F.);
#98=ORIENTED_EDGE('',*,*,#101,.T.);
#99=ORIENTED_EDGE('',*,*,#127,.F.);
#100=EDGE_CURVE('',#128,#128,#156,.T.);
#101=EDGE_CURVE('',#129,#129,#157,.T.);
#102=EDGE_CURVE('',#130,#130,#158,.T.);
#103=EDGE_CURVE('',#131,#131,#159,.T.);
#104=EDGE_CURVE('',#132,#132,#160,.T.);
#105=EDGE_CURVE('',#133,#133,#161,.T.);
#106=EDGE_CURVE('',#134,#134,#162,.T.);
#107=EDGE_CURVE('',#135,#135,#163,.T.);
#108=EDGE_CURVE('',#136,#136,#164,.T.);
#109=EDGE_CURVE('',#137,#137,#165,.T.);
#110=EDGE_CURVE('',#138,#138,#166,.T.);
#111=EDGE_CURVE('',#139,#139,#167,.T.);
#112=EDGE_CURVE('',#140,#140,#168,.T.);
#113=EDGE_CURVE('',#141,#141,#169,.T.);
#114=EDGE_CURVE('',#142,#142,#170,.T.);
#115=EDGE_CURVE('',#143,#143,#171,.T.);
#116=EDGE_CURVE('',#144,#144,#172,.T.);
#117=EDGE_CURVE('',#145,#145,#173,.T.);
#118=EDGE_CURVE('',#146,#146,#174,.T.);
#119=EDGE_CURVE('',#147,#147,#175,.T.);
#120=EDGE_CURVE('',#148,#148,#176,.T.);
#121=EDGE_CURVE('',#149,#149,#177,.T.);
#122=EDGE_CURVE('',#150,#150,#178,.T.);
#123=EDGE_CURVE('',#151,#151,#179,.T.);
#124=EDGE_CURVE('',#152,#152,#180,.T.);
#125=EDGE_CURVE('',#153,#153,#181,.T.);
#126=EDGE_CURVE('',#154,#154,#182,.T.);
#127=EDGE_CURVE('',#155,#155,#183,.T.);
#128=VERTEX_POINT('',#514);
#129=VERTEX_POINT('',#516);
#130=VERTEX_POINT('',#519);
#131=VERTEX_POINT('',#522);
#132=VERTEX_POINT('',#525);
#133=VERTEX_POINT('',#528);
#134=VERTEX_POINT('',#531);
#135=VERTEX_POINT('',#534);
#136=VERTEX_POINT('',#537);
#137=VERTEX_POINT('',#540);
#138=VERTEX_POINT('',#543);
#139=VERTEX_POINT('',#546);
#140=VERTEX_POINT('',#549);
#141=VERTEX_POINT('',#552);
#142=VERTEX_POINT('',#555);
#143=VERTEX_POINT('',#558);
#144=VERTEX_POINT('',#561);
#145=VERTEX_POINT('',#564);
#146=VERTEX_POINT('',#567);
#147=VERTEX_POINT('',#570);
#148=VERTEX_POINT('',#573);
#149=VERTEX_POINT('',#576);
#150=VERTEX_POINT('',#579);
#151=VERTEX_POINT('',#582);
#152=VERTEX_POINT('',#585);
#153=VERTEX_POINT('',#588);
#154=VERTEX_POINT('',#591);
#155=VERTEX_POINT('',#594);
#156=CIRCLE('',#342,9.37);
#157=CIRCLE('',#343,9.5);
#158=CIRCLE('',#345,5.3);
#159=CIRCLE('',#347,5.3);
#160=CIRCLE('',#349,5.6);
#161=CIRCLE('',#351,5.6);
#162=CIRCLE('',#353,5.);
#163=CIRCLE('',#355,5.);
#164=CIRCLE('',#357,5.6);
#165=CIRCLE('',#359,5.6);
#166=CIRCLE('',#361,5.29999999999999);
#167=CIRCLE('',#363,5.29999999999999);
#168=CIRCLE('',#365,9.37);
#169=CIRCLE('',#367,9.5);
#170=CIRCLE('',#369,9.5);
#171=CIRCLE('',#371,9.37);
#172=CIRCLE('',#373,9.5);
#173=CIRCLE('',#375,9.5);
#174=CIRCLE('',#377,9.);
#175=CIRCLE('',#379,9.);
#176=CIRCLE('',#381,9.5);
#177=CIRCLE('',#383,9.5);
#178=CIRCLE('',#385,9.);
#179=CIRCLE('',#387,9.);
#180=CIRCLE('',#389,9.5);
#181=CIRCLE('',#391,9.5);
#182=CIRCLE('',#393,9.37);
#183=CIRCLE('',#395,9.5);
#184=EDGE_LOOP('',(#44));
#185=EDGE_LOOP('',(#45));
#186=EDGE_LOOP('',(#46));
#187=EDGE_LOOP('',(#47));
#188=EDGE_LOOP('',(#48));
#189=EDGE_LOOP('',(#49));
#190=EDGE_LOOP('',(#50));
#191=EDGE_LOOP('',(#51));
#192=EDGE_LOOP('',(#52));
#193=EDGE_LOOP('',(#53));
#194=EDGE_LOOP('',(#54));
#195=EDGE_LOOP('',(#55));
#196=EDGE_LOOP('',(#56));
#197=EDGE_LOOP('',(#57));
#198=EDGE_LOOP('',(#58));
#199=EDGE_LOOP('',(#59));
#200=EDGE_LOOP('',(#60));
#201=EDGE_LOOP('',(#61));
#202=EDGE_LOOP('',(#62));
#203=EDGE_LOOP('',(#63));
#204=EDGE_LOOP('',(#64));
#205=EDGE_LOOP('',(#65));
#206=EDGE_LOOP('',(#66));
#207=EDGE_LOOP('',(#67));
#208=EDGE_LOOP('',(#68));
#209=EDGE_LOOP('',(#69));
#210=EDGE_LOOP('',(#70));
#211=EDGE_LOOP('',(#71));
#212=EDGE_LOOP('',(#72));
#213=EDGE_LOOP('',(#73));
#214=EDGE_LOOP('',(#74));
#215=EDGE_LOOP('',(#75));
#216=EDGE_LOOP('',(#76));
#217=EDGE_LOOP('',(#77));
#218=EDGE_LOOP('',(#78));
#219=EDGE_LOOP('',(#79));
#220=EDGE_LOOP('',(#80));
#221=EDGE_LOOP('',(#81));
#222=EDGE_LOOP('',(#82));
#223=EDGE_LOOP('',(#83));
#224=EDGE_LOOP('',(#84));
#225=EDGE_LOOP('',(#85));
#226=EDGE_LOOP('',(#86));
#227=EDGE_LOOP('',(#87));
#228=EDGE_LOOP('',(#88));
#229=EDGE_LOOP('',(#89));
#230=EDGE_LOOP('',(#90));
#231=EDGE_LOOP('',(#91));
#232=EDGE_LOOP('',(#92));
#233=EDGE_LOOP('',(#93));
#234=EDGE_LOOP('',(#94));
#235=EDGE_LOOP('',(#95));
#236=EDGE_LOOP('',(#96));
#237=EDGE_LOOP('',(#97));
#238=EDGE_LOOP('',(#98));
#239=EDGE_LOOP('',(#99));
#240=FACE_BOUND('',#184,.T.);
#241=FACE_BOUND('',#185,.T.);
#242=FACE_BOUND('',#186,.T.);
#243=FACE_BOUND('',#187,.T.);
#244=FACE_BOUND('',#188,.T.);
#245=FACE_BOUND('',#189,.T.);
#246=FACE_BOUND('',#190,.T.);
#247=FACE_BOUND('',#191,.T.);
#248=FACE_BOUND('',#192,.T.);
#249=FACE_BOUND('',#193,.T.);
#250=FACE_BOUND('',#194,.T.);
#251=FACE_BOUND('',#195,.T.);
#252=FACE_BOUND('',#196,.T.);
#253=FACE_BOUND('',#197,.T.);
#254=FACE_BOUND('',#198,.T.);
#255=FACE_BOUND('',#199,.T.);
#256=FACE_BOUND('',#200,.T.);
#257=FACE_BOUND('',#201,.T.);
#258=FACE_BOUND('',#202,.T.);
#259=FACE_BOUND('',#203,.T.);
#260=FACE_BOUND('',#204,.T.);
#261=FACE_BOUND('',#205,.T.);
#262=FACE_BOUND('',#206,.T.);
#263=FACE_BOUND('',#207,.T.);
#264=FACE_BOUND('',#208,.T.);
#265=FACE_BOUND('',#209,.T.);
#266=FACE_BOUND('',#210,.T.);
#267=FACE_BOUND('',#211,.T.);
#268=FACE_BOUND('',#212,.T.);
#269=FACE_BOUND('',#213,.T.);
#270=FACE_BOUND('',#214,.T.);
#271=FACE_BOUND('',#215,.T.);
#272=FACE_BOUND('',#216,.T.);
#273=FACE_BOUND('',#217,.T.);
#274=FACE_BOUND('',#218,.T.);
#275=FACE_BOUND('',#219,.T.);
#276=FACE_BOUND('',#220,.T.);
#277=FACE_BOUND('',#221,.T.);
#278=FACE_BOUND('',#222,.T.);
#279=FACE_BOUND('',#223,.T.);
#280=FACE_BOUND('',#224,.T.);
#281=FACE_BOUND('',#225,.T.);
#282=FACE_BOUND('',#226,.T.);
#283=FACE_BOUND('',#227,.T.);
#284=FACE_BOUND('',#228,.T.);
#285=FACE_BOUND('',#229,.T.);
#286=FACE_BOUND('',#230,.T.);
#287=FACE_BOUND('',#231,.T.);
#288=FACE_BOUND('',#232,.T.);
#289=FACE_BOUND('',#233,.T.);
#290=FACE_BOUND('',#234,.T.);
#291=FACE_BOUND('',#235,.T.);
#292=FACE_BOUND('',#236,.T.);
#293=FACE_BOUND('',#237,.T.);
#294=FACE_BOUND('',#238,.T.);
#295=FACE_BOUND('',#239,.T.);
#296=TOROIDAL_SURFACE('',#341,9.37,0.129999999999995);
#297=TOROIDAL_SURFACE('',#366,9.37,0.129999999999991);
#298=TOROIDAL_SURFACE('',#372,9.37,0.129999999999998);
#299=TOROIDAL_SURFACE('',#392,9.37,0.130000000000002);
#300=ADVANCED_FACE('',(#240,#241),#296,.T.);
#301=ADVANCED_FACE('',(#242,#243),#32,.T.);
#302=ADVANCED_FACE('',(#244,#245),#20,.F.);
#303=ADVANCED_FACE('',(#246,#247),#33,.T.);
#304=ADVANCED_FACE('',(#248,#249),#21,.F.);
#305=ADVANCED_FACE('',(#250,#251),#34,.T.);
#306=ADVANCED_FACE('',(#252,#253),#22,.F.);
#307=ADVANCED_FACE('',(#254,#255),#35,.T.);
#308=ADVANCED_FACE('',(#256,#257),#23,.F.);
#309=ADVANCED_FACE('',(#258,#259),#36,.T.);
#310=ADVANCED_FACE('',(#260,#261),#24,.F.);
#311=ADVANCED_FACE('',(#262,#263),#37,.T.);
#312=ADVANCED_FACE('',(#264,#265),#297,.T.);
#313=ADVANCED_FACE('',(#266,#267),#25,.T.);
#314=ADVANCED_FACE('',(#268,#269),#38,.T.);
#315=ADVANCED_FACE('',(#270,#271),#298,.T.);
#316=ADVANCED_FACE('',(#272,#273),#26,.T.);
#317=ADVANCED_FACE('',(#274,#275),#39,.T.);
#318=ADVANCED_FACE('',(#276,#277),#27,.T.);
#319=ADVANCED_FACE('',(#278,#279),#40,.T.);
#320=ADVANCED_FACE('',(#280,#281),#28,.T.);
#321=ADVANCED_FACE('',(#282,#283),#41,.T.);
#322=ADVANCED_FACE('',(#284,#285),#29,.T.);
#323=ADVANCED_FACE('',(#286,#287),#42,.T.);
#324=ADVANCED_FACE('',(#288,#289),#30,.T.);
#325=ADVANCED_FACE('',(#290,#291),#299,.T.);
#326=ADVANCED_FACE('',(#292,#293),#43,.T.);
#327=ADVANCED_FACE('',(#294,#295),#31,.T.);
#328=CLOSED_SHELL('',(#300,#301,#302,#303,#304,#305,#306,#307,#308,#309,
#310,#311,#312,#313,#314,#315,#316,#317,#318,#319,#320,#321,#322,#323,#324,
#325,#326,#327));
#329=STYLED_ITEM('',(#330),#337);
#330=PRESENTATION_STYLE_ASSIGNMENT((#331));
#331=SURFACE_STYLE_USAGE(.BOTH.,#332);
#332=SURFACE_SIDE_STYLE('',(#333));
#333=SURFACE_STYLE_FILL_AREA(#334);
#334=FILL_AREA_STYLE('',(#335));
#335=FILL_AREA_STYLE_COLOUR('',#336);
#336=COLOUR_RGB('',0.689999997615814,0.689999997615814,0.689999997615814);
#337=MANIFOLD_SOLID_BREP('LM10LUU-MX',#328);
#338=SHAPE_DEFINITION_REPRESENTATION(#602,#339);
#339=SHAPE_REPRESENTATION('LM10LUU-MX',(#340),#597);
#340=AXIS2_PLACEMENT_3D('',#511,#397,#398);
#341=AXIS2_PLACEMENT_3D('',#512,#399,#400);
#342=AXIS2_PLACEMENT_3D('',#513,#401,#402);
#343=AXIS2_PLACEMENT_3D('',#515,#403,#404);
#344=AXIS2_PLACEMENT_3D('',#517,#405,#406);
#345=AXIS2_PLACEMENT_3D('',#518,#407,#408);
#346=AXIS2_PLACEMENT_3D('',#520,#409,#410);
#347=AXIS2_PLACEMENT_3D('',#521,#411,#412);
#348=AXIS2_PLACEMENT_3D('',#523,#413,#414);
#349=AXIS2_PLACEMENT_3D('',#524,#415,#416);
#350=AXIS2_PLACEMENT_3D('',#526,#417,#418);
#351=AXIS2_PLACEMENT_3D('',#527,#419,#420);
#352=AXIS2_PLACEMENT_3D('',#529,#421,#422);
#353=AXIS2_PLACEMENT_3D('',#530,#423,#424);
#354=AXIS2_PLACEMENT_3D('',#532,#425,#426);
#355=AXIS2_PLACEMENT_3D('',#533,#427,#428);
#356=AXIS2_PLACEMENT_3D('',#535,#429,#430);
#357=AXIS2_PLACEMENT_3D('',#536,#431,#432);
#358=AXIS2_PLACEMENT_3D('',#538,#433,#434);
#359=AXIS2_PLACEMENT_3D('',#539,#435,#436);
#360=AXIS2_PLACEMENT_3D('',#541,#437,#438);
#361=AXIS2_PLACEMENT_3D('',#542,#439,#440);
#362=AXIS2_PLACEMENT_3D('',#544,#441,#442);
#363=AXIS2_PLACEMENT_3D('',#545,#443,#444);
#364=AXIS2_PLACEMENT_3D('',#547,#445,#446);
#365=AXIS2_PLACEMENT_3D('',#548,#447,#448);
#366=AXIS2_PLACEMENT_3D('',#550,#449,#450);
#367=AXIS2_PLACEMENT_3D('',#551,#451,#452);
#368=AXIS2_PLACEMENT_3D('',#553,#453,#454);
#369=AXIS2_PLACEMENT_3D('',#554,#455,#456);
#370=AXIS2_PLACEMENT_3D('',#556,#457,#458);
#371=AXIS2_PLACEMENT_3D('',#557,#459,#460);
#372=AXIS2_PLACEMENT_3D('',#559,#461,#462);
#373=AXIS2_PLACEMENT_3D('',#560,#463,#464);
#374=AXIS2_PLACEMENT_3D('',#562,#465,#466);
#375=AXIS2_PLACEMENT_3D('',#563,#467,#468);
#376=AXIS2_PLACEMENT_3D('',#565,#469,#470);
#377=AXIS2_PLACEMENT_3D('',#566,#471,#472);
#378=AXIS2_PLACEMENT_3D('',#568,#473,#474);
#379=AXIS2_PLACEMENT_3D('',#569,#475,#476);
#380=AXIS2_PLACEMENT_3D('',#571,#477,#478);
#381=AXIS2_PLACEMENT_3D('',#572,#479,#480);
#382=AXIS2_PLACEMENT_3D('',#574,#481,#482);
#383=AXIS2_PLACEMENT_3D('',#575,#483,#484);
#384=AXIS2_PLACEMENT_3D('',#577,#485,#486);
#385=AXIS2_PLACEMENT_3D('',#578,#487,#488);
#386=AXIS2_PLACEMENT_3D('',#580,#489,#490);
#387=AXIS2_PLACEMENT_3D('',#581,#491,#492);
#388=AXIS2_PLACEMENT_3D('',#583,#493,#494);
#389=AXIS2_PLACEMENT_3D('',#584,#495,#496);
#390=AXIS2_PLACEMENT_3D('',#586,#497,#498);
#391=AXIS2_PLACEMENT_3D('',#587,#499,#500);
#392=AXIS2_PLACEMENT_3D('',#589,#501,#502);
#393=AXIS2_PLACEMENT_3D('',#590,#503,#504);
#394=AXIS2_PLACEMENT_3D('',#592,#505,#506);
#395=AXIS2_PLACEMENT_3D('',#593,#507,#508);
#396=AXIS2_PLACEMENT_3D('',#595,#509,#510);
#397=DIRECTION('',(0.,0.,1.));
#398=DIRECTION('',(1.,0.,0.));
#399=DIRECTION('',(1.,0.,0.));
#400=DIRECTION('',(0.,0.,-1.));
#401=DIRECTION('',(1.,0.,0.));
#402=DIRECTION('',(0.,0.,-1.));
#403=DIRECTION('',(1.,0.,0.));
#404=DIRECTION('',(0.,0.,-1.));
#405=DIRECTION('',(-1.,0.,0.));
#406=DIRECTION('',(0.,0.,1.));
#407=DIRECTION('',(1.,0.,0.));
#408=DIRECTION('',(0.,0.,-1.));
#409=DIRECTION('',(1.,0.,0.));
#410=DIRECTION('',(0.,0.,-1.));
#411=DIRECTION('',(1.,0.,0.));
#412=DIRECTION('',(0.,0.,-1.));
#413=DIRECTION('',(1.,0.,0.));
#414=DIRECTION('',(0.,0.,-1.));
#415=DIRECTION('',(1.,0.,0.));
#416=DIRECTION('',(0.,0.,-1.));
#417=DIRECTION('',(1.,0.,0.));
#418=DIRECTION('',(0.,0.,-1.));
#419=DIRECTION('',(1.,0.,0.));
#420=DIRECTION('',(0.,0.,-1.));
#421=DIRECTION('',(-1.,0.,0.));
#422=DIRECTION('',(0.,0.,1.));
#423=DIRECTION('',(1.,0.,0.));
#424=DIRECTION('',(0.,0.,-1.));
#425=DIRECTION('',(1.,0.,0.));
#426=DIRECTION('',(0.,0.,-1.));
#427=DIRECTION('',(1.,0.,0.));
#428=DIRECTION('',(0.,0.,-1.));
#429=DIRECTION('',(1.,0.,0.));
#430=DIRECTION('',(0.,0.,-1.));
#431=DIRECTION('',(1.,0.,0.));
#432=DIRECTION('',(0.,0.,-1.));
#433=DIRECTION('',(1.,0.,0.));
#434=DIRECTION('',(0.,0.,-1.));
#435=DIRECTION('',(1.,0.,0.));
#436=DIRECTION('',(0.,0.,-1.));
#437=DIRECTION('',(-1.,0.,0.));
#438=DIRECTION('',(0.,0.,1.));
#439=DIRECTION('',(1.,0.,0.));
#440=DIRECTION('',(0.,0.,-1.));
#441=DIRECTION('',(1.,0.,0.));
#442=DIRECTION('',(0.,0.,-1.));
#443=DIRECTION('',(1.,0.,0.));
#444=DIRECTION('',(0.,0.,-1.));
#445=DIRECTION('',(1.,0.,0.));
#446=DIRECTION('',(0.,0.,-1.));
#447=DIRECTION('',(1.,0.,0.));
#448=DIRECTION('',(0.,0.,-1.));
#449=DIRECTION('',(1.,0.,0.));
#450=DIRECTION('',(0.,0.,-1.));
#451=DIRECTION('',(1.,0.,0.));
#452=DIRECTION('',(0.,0.,-1.));
#453=DIRECTION('',(1.,0.,0.));
#454=DIRECTION('',(0.,0.,-1.));
#455=DIRECTION('',(1.,0.,0.));
#456=DIRECTION('',(0.,0.,-1.));
#457=DIRECTION('',(-1.,0.,0.));
#458=DIRECTION('',(0.,0.,1.));
#459=DIRECTION('',(1.,0.,0.));
#460=DIRECTION('',(0.,0.,-1.));
#461=DIRECTION('',(1.,0.,0.));
#462=DIRECTION('',(0.,0.,-1.));
#463=DIRECTION('',(1.,0.,0.));
#464=DIRECTION('',(0.,0.,-1.));
#465=DIRECTION('',(1.,0.,0.));
#466=DIRECTION('',(0.,0.,-1.));
#467=DIRECTION('',(1.,0.,0.));
#468=DIRECTION('',(0.,0.,-1.));
#469=DIRECTION('',(-1.,0.,0.));
#470=DIRECTION('',(0.,0.,1.));
#471=DIRECTION('',(1.,0.,0.));
#472=DIRECTION('',(0.,0.,-1.));
#473=DIRECTION('',(1.,0.,0.));
#474=DIRECTION('',(0.,0.,-1.));
#475=DIRECTION('',(1.,0.,0.));
#476=DIRECTION('',(0.,0.,-1.));
#477=DIRECTION('',(1.,0.,0.));
#478=DIRECTION('',(0.,0.,-1.));
#479=DIRECTION('',(1.,0.,0.));
#480=DIRECTION('',(0.,0.,-1.));
#481=DIRECTION('',(1.,0.,0.));
#482=DIRECTION('',(0.,0.,-1.));
#483=DIRECTION('',(1.,0.,0.));
#484=DIRECTION('',(0.,0.,-1.));
#485=DIRECTION('',(-1.,0.,0.));
#486=DIRECTION('',(0.,0.,1.));
#487=DIRECTION('',(1.,0.,0.));
#488=DIRECTION('',(0.,0.,-1.));
#489=DIRECTION('',(1.,0.,0.));
#490=DIRECTION('',(0.,0.,-1.));
#491=DIRECTION('',(1.,0.,0.));
#492=DIRECTION('',(0.,0.,-1.));
#493=DIRECTION('',(1.,0.,0.));
#494=DIRECTION('',(0.,0.,-1.));
#495=DIRECTION('',(1.,0.,0.));
#496=DIRECTION('',(0.,0.,-1.));
#497=DIRECTION('',(1.,0.,0.));
#498=DIRECTION('',(0.,0.,-1.));
#499=DIRECTION('',(1.,0.,0.));
#500=DIRECTION('',(0.,0.,-1.));
#501=DIRECTION('',(1.,0.,0.));
#502=DIRECTION('',(0.,0.,-1.));
#503=DIRECTION('',(1.,0.,0.));
#504=DIRECTION('',(0.,0.,-1.));
#505=DIRECTION('',(1.,0.,0.));
#506=DIRECTION('',(0.,0.,-1.));
#507=DIRECTION('',(1.,0.,0.));
#508=DIRECTION('',(0.,0.,-1.));
#509=DIRECTION('',(1.,0.,0.));
#510=DIRECTION('',(0.,0.,-1.));
#511=CARTESIAN_POINT('',(0.,0.,0.));
#512=CARTESIAN_POINT('',(-32.37,0.,0.));
#513=CARTESIAN_POINT('',(-32.5,0.,0.));
#514=CARTESIAN_POINT('',(-32.5,0.,-9.37));
#515=CARTESIAN_POINT('',(-32.37,0.,0.));
#516=CARTESIAN_POINT('',(-32.37,0.,-9.5));
#517=CARTESIAN_POINT('',(-32.5,9.37,0.));
#518=CARTESIAN_POINT('',(-32.5,0.,0.));
#519=CARTESIAN_POINT('',(-32.5,0.,-5.3));
#520=CARTESIAN_POINT('',(500.,0.,0.));
#521=CARTESIAN_POINT('',(-31.8000000000001,0.,0.));
#522=CARTESIAN_POINT('',(-31.8000000000001,0.,-5.3));
#523=CARTESIAN_POINT('',(-31.8,5.3,0.));
#524=CARTESIAN_POINT('',(-31.8000000000001,0.,0.));
#525=CARTESIAN_POINT('',(-31.8000000000001,0.,-5.6));
#526=CARTESIAN_POINT('',(500.,0.,0.));
#527=CARTESIAN_POINT('',(-31.45,0.,0.));
#528=CARTESIAN_POINT('',(-31.45,0.,-5.6));
#529=CARTESIAN_POINT('',(-31.45,5.6,0.));
#530=CARTESIAN_POINT('',(-31.45,0.,0.));
#531=CARTESIAN_POINT('',(-31.45,0.,-5.));
#532=CARTESIAN_POINT('',(500.,0.,0.));
#533=CARTESIAN_POINT('',(31.45,0.,0.));
#534=CARTESIAN_POINT('',(31.45,0.,-5.));
#535=CARTESIAN_POINT('',(31.45,5.,0.));
#536=CARTESIAN_POINT('',(31.45,0.,0.));
#537=CARTESIAN_POINT('',(31.45,0.,-5.6));
#538=CARTESIAN_POINT('',(500.,0.,0.));
#539=CARTESIAN_POINT('',(31.8,0.,0.));
#540=CARTESIAN_POINT('',(31.8,0.,-5.6));
#541=CARTESIAN_POINT('',(31.8,5.6,0.));
#542=CARTESIAN_POINT('',(31.8,0.,0.));
#543=CARTESIAN_POINT('',(31.8,0.,-5.29999999999999));
#544=CARTESIAN_POINT('',(500.,0.,0.));
#545=CARTESIAN_POINT('',(32.5,0.,0.));
#546=CARTESIAN_POINT('',(32.5,0.,-5.29999999999999));
#547=CARTESIAN_POINT('',(32.5,5.29999999999999,0.));
#548=CARTESIAN_POINT('',(32.5,0.,0.));
#549=CARTESIAN_POINT('',(32.5,0.,-9.37));
#550=CARTESIAN_POINT('',(32.37,0.,0.));
#551=CARTESIAN_POINT('',(32.37,0.,0.));
#552=CARTESIAN_POINT('',(32.37,0.,-9.5));
#553=CARTESIAN_POINT('',(500.,0.,0.));
#554=CARTESIAN_POINT('',(27.5,0.,0.));
#555=CARTESIAN_POINT('',(27.5,0.,-9.5));
#556=CARTESIAN_POINT('',(27.5,9.5,0.));
#557=CARTESIAN_POINT('',(27.5,0.,0.));
#558=CARTESIAN_POINT('',(27.5,0.,-9.37));
#559=CARTESIAN_POINT('',(27.37,0.,0.));
#560=CARTESIAN_POINT('',(27.37,0.,0.));
#561=CARTESIAN_POINT('',(27.37,0.,-9.5));
#562=CARTESIAN_POINT('',(500.,0.,0.));
#563=CARTESIAN_POINT('',(22.,0.,0.));
#564=CARTESIAN_POINT('',(22.,0.,-9.5));
#565=CARTESIAN_POINT('',(22.,9.5,0.));
#566=CARTESIAN_POINT('',(22.,0.,0.));
#567=CARTESIAN_POINT('',(22.,0.,-9.));
#568=CARTESIAN_POINT('',(500.,0.,0.));
#569=CARTESIAN_POINT('',(20.7,0.,0.));
#570=CARTESIAN_POINT('',(20.7,0.,-9.));
#571=CARTESIAN_POINT('',(20.7,9.,0.));
#572=CARTESIAN_POINT('',(20.7,0.,0.));
#573=CARTESIAN_POINT('',(20.7,0.,-9.5));
#574=CARTESIAN_POINT('',(500.,0.,0.));
#575=CARTESIAN_POINT('',(-20.6999999999999,0.,0.));
#576=CARTESIAN_POINT('',(-20.6999999999999,0.,-9.5));
#577=CARTESIAN_POINT('',(-20.7,9.5,0.));
#578=CARTESIAN_POINT('',(-20.7000000000001,0.,0.));
#579=CARTESIAN_POINT('',(-20.7000000000001,0.,-9.));
#580=CARTESIAN_POINT('',(500.,0.,0.));
#581=CARTESIAN_POINT('',(-22.,0.,0.));
#582=CARTESIAN_POINT('',(-22.,0.,-9.));
#583=CARTESIAN_POINT('',(-22.,9.,0.));
#584=CARTESIAN_POINT('',(-22.,0.,0.));
#585=CARTESIAN_POINT('',(-22.,0.,-9.5));
#586=CARTESIAN_POINT('',(500.,0.,0.));
#587=CARTESIAN_POINT('',(-27.37,0.,0.));
#588=CARTESIAN_POINT('',(-27.37,0.,-9.5));
#589=CARTESIAN_POINT('',(-27.37,0.,0.));
#590=CARTESIAN_POINT('',(-27.5,0.,0.));
#591=CARTESIAN_POINT('',(-27.5,0.,-9.37));
#592=CARTESIAN_POINT('',(-27.5,9.37,0.));
#593=CARTESIAN_POINT('',(-27.5,0.,0.));
#594=CARTESIAN_POINT('',(-27.5,0.,-9.5));
#595=CARTESIAN_POINT('',(500.,0.,0.));
#596=MECHANICAL_DESIGN_GEOMETRIC_PRESENTATION_REPRESENTATION('',(#329),
#597);
#597=(
GEOMETRIC_REPRESENTATION_CONTEXT(3)
GLOBAL_UNCERTAINTY_ASSIGNED_CONTEXT((#598))
GLOBAL_UNIT_ASSIGNED_CONTEXT((#601,#600,#599))
REPRESENTATION_CONTEXT('LM10LUU-MX','TOP_LEVEL_ASSEMBLY_PART')
);
#598=UNCERTAINTY_MEASURE_WITH_UNIT(LENGTH_MEASURE(0.005),#601,
'DISTANCE_ACCURACY_VALUE','Maximum Tolerance applied to model');
#599=(
NAMED_UNIT(*)
SI_UNIT($,.STERADIAN.)
SOLID_ANGLE_UNIT()
);
#600=(
NAMED_UNIT(*)
PLANE_ANGLE_UNIT()
SI_UNIT($,.RADIAN.)
);
#601=(
LENGTH_UNIT()
NAMED_UNIT(*)
SI_UNIT(.MILLI.,.METRE.)
);
#602=PRODUCT_DEFINITION_SHAPE('','',#603);
#603=PRODUCT_DEFINITION('','',#605,#604);
#604=DESIGN_CONTEXT('',#611,'design');
#605=PRODUCT_DEFINITION_FORMATION_WITH_SPECIFIED_SOURCE('','',#607,
 .NOT_KNOWN.);
#606=PRODUCT_RELATED_PRODUCT_CATEGORY('','',(#607));
#607=PRODUCT('LM10LUU-MX','LM10LUU-MX','LM10LUU-MX',(#609));
#608=PRODUCT_CATEGORY('','');
#609=MECHANICAL_CONTEXT('',#611,'mechanical');
#610=APPLICATION_PROTOCOL_DEFINITION('international standard',
'config_control_design',2010,#611);
#611=APPLICATION_CONTEXT(
'configuration controlled 3D designs of mechanical parts and assemblie
s');
ENDSEC;
END-ISO-10303-21;
