ISO-10303-21;
HEADER;
/* Generated by software containing ST-Developer
 * from STEP Tools, Inc. (www.steptools.com) 
 */
/* OPTION: using custom renumber hook */

FILE_DESCRIPTION(
/* description */ ('STEP AP203'),
/* implementation_level */ '2;1');

FILE_NAME(
/* name */ 'LM3L',
/* time_stamp */ '2022-07-21T04:30:55+02:00',
/* author */ ('License CC BY-ND 4.0'),
/* organization */ ('CADENAS'),
/* preprocessor_version */ 'ST-DEVELOPER v18.102',
/* originating_system */ 'PARTsolutions',
/* authorisation */ '  ');

FILE_SCHEMA (('CONFIG_CONTROL_DESIGN'));
ENDSEC;

DATA;
#10=PROPERTY_DEFINITION_REPRESENTATION(#14,#12);
#11=PROPERTY_DEFINITION_REPRESENTATION(#15,#13);
#12=REPRESENTATION('',(#16),#317);
#13=REPRESENTATION('',(#17),#317);
#14=PROPERTY_DEFINITION('pmi validation property','',#322);
#15=PROPERTY_DEFINITION('pmi validation property','',#322);
#16=VALUE_REPRESENTATION_ITEM('number of annotations',COUNT_MEASURE(0.));
#17=VALUE_REPRESENTATION_ITEM('number of views',COUNT_MEASURE(0.));
#18=SHAPE_REPRESENTATION_RELATIONSHIP('','',#185,#19);
#19=ADVANCED_BREP_SHAPE_REPRESENTATION('',(#183),#317);
#20=TOROIDAL_SURFACE('',#210,3.34999999999999,0.149999999999997);
#21=TOROIDAL_SURFACE('',#212,3.34999999999999,0.149999999999997);
#22=CYLINDRICAL_SURFACE('',#193,1.7);
#23=CYLINDRICAL_SURFACE('',#197,1.9);
#24=CYLINDRICAL_SURFACE('',#201,1.5);
#25=CYLINDRICAL_SURFACE('',#205,1.9);
#26=CYLINDRICAL_SURFACE('',#209,1.7);
#27=CYLINDRICAL_SURFACE('',#214,3.49999999999999);
#28=ORIENTED_EDGE('',*,*,#56,.T.);
#29=ORIENTED_EDGE('',*,*,#57,.F.);
#30=ORIENTED_EDGE('',*,*,#58,.T.);
#31=ORIENTED_EDGE('',*,*,#59,.F.);
#32=ORIENTED_EDGE('',*,*,#60,.T.);
#33=ORIENTED_EDGE('',*,*,#56,.F.);
#34=ORIENTED_EDGE('',*,*,#61,.T.);
#35=ORIENTED_EDGE('',*,*,#60,.F.);
#36=ORIENTED_EDGE('',*,*,#62,.T.);
#37=ORIENTED_EDGE('',*,*,#61,.F.);
#38=ORIENTED_EDGE('',*,*,#63,.T.);
#39=ORIENTED_EDGE('',*,*,#62,.F.);
#40=ORIENTED_EDGE('',*,*,#64,.T.);
#41=ORIENTED_EDGE('',*,*,#63,.F.);
#42=ORIENTED_EDGE('',*,*,#65,.T.);
#43=ORIENTED_EDGE('',*,*,#64,.F.);
#44=ORIENTED_EDGE('',*,*,#66,.T.);
#45=ORIENTED_EDGE('',*,*,#65,.F.);
#46=ORIENTED_EDGE('',*,*,#67,.T.);
#47=ORIENTED_EDGE('',*,*,#66,.F.);
#48=ORIENTED_EDGE('',*,*,#59,.T.);
#49=ORIENTED_EDGE('',*,*,#67,.F.);
#50=ORIENTED_EDGE('',*,*,#68,.T.);
#51=ORIENTED_EDGE('',*,*,#58,.F.);
#52=ORIENTED_EDGE('',*,*,#57,.T.);
#53=ORIENTED_EDGE('',*,*,#69,.F.);
#54=ORIENTED_EDGE('',*,*,#69,.T.);
#55=ORIENTED_EDGE('',*,*,#68,.F.);
#56=EDGE_CURVE('',#70,#70,#84,.T.);
#57=EDGE_CURVE('',#71,#71,#85,.T.);
#58=EDGE_CURVE('',#72,#72,#86,.T.);
#59=EDGE_CURVE('',#73,#73,#87,.T.);
#60=EDGE_CURVE('',#74,#74,#88,.T.);
#61=EDGE_CURVE('',#75,#75,#89,.T.);
#62=EDGE_CURVE('',#76,#76,#90,.T.);
#63=EDGE_CURVE('',#77,#77,#91,.T.);
#64=EDGE_CURVE('',#78,#78,#92,.T.);
#65=EDGE_CURVE('',#79,#79,#93,.T.);
#66=EDGE_CURVE('',#80,#80,#94,.T.);
#67=EDGE_CURVE('',#81,#81,#95,.T.);
#68=EDGE_CURVE('',#82,#82,#96,.T.);
#69=EDGE_CURVE('',#83,#83,#97,.T.);
#70=VERTEX_POINT('',#276);
#71=VERTEX_POINT('',#278);
#72=VERTEX_POINT('',#281);
#73=VERTEX_POINT('',#283);
#74=VERTEX_POINT('',#286);
#75=VERTEX_POINT('',#289);
#76=VERTEX_POINT('',#292);
#77=VERTEX_POINT('',#295);
#78=VERTEX_POINT('',#298);
#79=VERTEX_POINT('',#301);
#80=VERTEX_POINT('',#304);
#81=VERTEX_POINT('',#307);
#82=VERTEX_POINT('',#311);
#83=VERTEX_POINT('',#314);
#84=CIRCLE('',#188,1.7);
#85=CIRCLE('',#189,3.34999999999999);
#86=CIRCLE('',#191,3.34999999999999);
#87=CIRCLE('',#192,1.7);
#88=CIRCLE('',#194,1.7);
#89=CIRCLE('',#196,1.9);
#90=CIRCLE('',#198,1.9);
#91=CIRCLE('',#200,1.5);
#92=CIRCLE('',#202,1.5);
#93=CIRCLE('',#204,1.9);
#94=CIRCLE('',#206,1.9);
#95=CIRCLE('',#208,1.7);
#96=CIRCLE('',#211,3.49999999999999);
#97=CIRCLE('',#213,3.49999999999999);
#98=EDGE_LOOP('',(#28));
#99=EDGE_LOOP('',(#29));
#100=EDGE_LOOP('',(#30));
#101=EDGE_LOOP('',(#31));
#102=EDGE_LOOP('',(#32));
#103=EDGE_LOOP('',(#33));
#104=EDGE_LOOP('',(#34));
#105=EDGE_LOOP('',(#35));
#106=EDGE_LOOP('',(#36));
#107=EDGE_LOOP('',(#37));
#108=EDGE_LOOP('',(#38));
#109=EDGE_LOOP('',(#39));
#110=EDGE_LOOP('',(#40));
#111=EDGE_LOOP('',(#41));
#112=EDGE_LOOP('',(#42));
#113=EDGE_LOOP('',(#43));
#114=EDGE_LOOP('',(#44));
#115=EDGE_LOOP('',(#45));
#116=EDGE_LOOP('',(#46));
#117=EDGE_LOOP('',(#47));
#118=EDGE_LOOP('',(#48));
#119=EDGE_LOOP('',(#49));
#120=EDGE_LOOP('',(#50));
#121=EDGE_LOOP('',(#51));
#122=EDGE_LOOP('',(#52));
#123=EDGE_LOOP('',(#53));
#124=EDGE_LOOP('',(#54));
#125=EDGE_LOOP('',(#55));
#126=FACE_BOUND('',#98,.T.);
#127=FACE_BOUND('',#99,.T.);
#128=FACE_BOUND('',#100,.T.);
#129=FACE_BOUND('',#101,.T.);
#130=FACE_BOUND('',#102,.T.);
#131=FACE_BOUND('',#103,.T.);
#132=FACE_BOUND('',#104,.T.);
#133=FACE_BOUND('',#105,.T.);
#134=FACE_BOUND('',#106,.T.);
#135=FACE_BOUND('',#107,.T.);
#136=FACE_BOUND('',#108,.T.);
#137=FACE_BOUND('',#109,.T.);
#138=FACE_BOUND('',#110,.T.);
#139=FACE_BOUND('',#111,.T.);
#140=FACE_BOUND('',#112,.T.);
#141=FACE_BOUND('',#113,.T.);
#142=FACE_BOUND('',#114,.T.);
#143=FACE_BOUND('',#115,.T.);
#144=FACE_BOUND('',#116,.T.);
#145=FACE_BOUND('',#117,.T.);
#146=FACE_BOUND('',#118,.T.);
#147=FACE_BOUND('',#119,.T.);
#148=FACE_BOUND('',#120,.T.);
#149=FACE_BOUND('',#121,.T.);
#150=FACE_BOUND('',#122,.T.);
#151=FACE_BOUND('',#123,.T.);
#152=FACE_BOUND('',#124,.T.);
#153=FACE_BOUND('',#125,.T.);
#154=PLANE('',#187);
#155=PLANE('',#190);
#156=PLANE('',#195);
#157=PLANE('',#199);
#158=PLANE('',#203);
#159=PLANE('',#207);
#160=ADVANCED_FACE('',(#126,#127),#154,.T.);
#161=ADVANCED_FACE('',(#128,#129),#155,.T.);
#162=ADVANCED_FACE('',(#130,#131),#22,.F.);
#163=ADVANCED_FACE('',(#132,#133),#156,.T.);
#164=ADVANCED_FACE('',(#134,#135),#23,.F.);
#165=ADVANCED_FACE('',(#136,#137),#157,.T.);
#166=ADVANCED_FACE('',(#138,#139),#24,.F.);
#167=ADVANCED_FACE('',(#140,#141),#158,.T.);
#168=ADVANCED_FACE('',(#142,#143),#25,.F.);
#169=ADVANCED_FACE('',(#144,#145),#159,.T.);
#170=ADVANCED_FACE('',(#146,#147),#26,.F.);
#171=ADVANCED_FACE('',(#148,#149),#20,.T.);
#172=ADVANCED_FACE('',(#150,#151),#21,.T.);
#173=ADVANCED_FACE('',(#152,#153),#27,.T.);
#174=CLOSED_SHELL('',(#160,#161,#162,#163,#164,#165,#166,#167,#168,#169,
#170,#171,#172,#173));
#175=STYLED_ITEM('',(#176),#183);
#176=PRESENTATION_STYLE_ASSIGNMENT((#177));
#177=SURFACE_STYLE_USAGE(.BOTH.,#178);
#178=SURFACE_SIDE_STYLE('',(#179));
#179=SURFACE_STYLE_FILL_AREA(#180);
#180=FILL_AREA_STYLE('',(#181));
#181=FILL_AREA_STYLE_COLOUR('',#182);
#182=COLOUR_RGB('',0.689999997615814,0.689999997615814,0.689999997615814);
#183=MANIFOLD_SOLID_BREP('LM3L',#174);
#184=SHAPE_DEFINITION_REPRESENTATION(#322,#185);
#185=SHAPE_REPRESENTATION('LM3L',(#186),#317);
#186=AXIS2_PLACEMENT_3D('',#273,#215,#216);
#187=AXIS2_PLACEMENT_3D('',#274,#217,#218);
#188=AXIS2_PLACEMENT_3D('',#275,#219,#220);
#189=AXIS2_PLACEMENT_3D('',#277,#221,#222);
#190=AXIS2_PLACEMENT_3D('',#279,#223,#224);
#191=AXIS2_PLACEMENT_3D('',#280,#225,#226);
#192=AXIS2_PLACEMENT_3D('',#282,#227,#228);
#193=AXIS2_PLACEMENT_3D('',#284,#229,#230);
#194=AXIS2_PLACEMENT_3D('',#285,#231,#232);
#195=AXIS2_PLACEMENT_3D('',#287,#233,#234);
#196=AXIS2_PLACEMENT_3D('',#288,#235,#236);
#197=AXIS2_PLACEMENT_3D('',#290,#237,#238);
#198=AXIS2_PLACEMENT_3D('',#291,#239,#240);
#199=AXIS2_PLACEMENT_3D('',#293,#241,#242);
#200=AXIS2_PLACEMENT_3D('',#294,#243,#244);
#201=AXIS2_PLACEMENT_3D('',#296,#245,#246);
#202=AXIS2_PLACEMENT_3D('',#297,#247,#248);
#203=AXIS2_PLACEMENT_3D('',#299,#249,#250);
#204=AXIS2_PLACEMENT_3D('',#300,#251,#252);
#205=AXIS2_PLACEMENT_3D('',#302,#253,#254);
#206=AXIS2_PLACEMENT_3D('',#303,#255,#256);
#207=AXIS2_PLACEMENT_3D('',#305,#257,#258);
#208=AXIS2_PLACEMENT_3D('',#306,#259,#260);
#209=AXIS2_PLACEMENT_3D('',#308,#261,#262);
#210=AXIS2_PLACEMENT_3D('',#309,#263,#264);
#211=AXIS2_PLACEMENT_3D('',#310,#265,#266);
#212=AXIS2_PLACEMENT_3D('',#312,#267,#268);
#213=AXIS2_PLACEMENT_3D('',#313,#269,#270);
#214=AXIS2_PLACEMENT_3D('',#315,#271,#272);
#215=DIRECTION('',(0.,0.,1.));
#216=DIRECTION('',(1.,0.,0.));
#217=DIRECTION('',(0.,0.,1.));
#218=DIRECTION('',(1.,0.,0.));
#219=DIRECTION('',(0.,0.,-1.));
#220=DIRECTION('',(-1.,0.,0.));
#221=DIRECTION('',(0.,0.,-1.));
#222=DIRECTION('',(-1.,0.,0.));
#223=DIRECTION('',(0.,0.,-1.));
#224=DIRECTION('',(-1.,0.,0.));
#225=DIRECTION('',(0.,0.,-1.));
#226=DIRECTION('',(-1.,0.,0.));
#227=DIRECTION('',(0.,0.,-1.));
#228=DIRECTION('',(-1.,0.,0.));
#229=DIRECTION('',(0.,0.,-1.));
#230=DIRECTION('',(-1.,0.,0.));
#231=DIRECTION('',(0.,0.,-1.));
#232=DIRECTION('',(-1.,0.,0.));
#233=DIRECTION('',(0.,0.,-1.));
#234=DIRECTION('',(-1.,0.,0.));
#235=DIRECTION('',(0.,0.,-1.));
#236=DIRECTION('',(-1.,0.,0.));
#237=DIRECTION('',(0.,0.,-1.));
#238=DIRECTION('',(-1.,0.,0.));
#239=DIRECTION('',(0.,0.,-1.));
#240=DIRECTION('',(-1.,0.,0.));
#241=DIRECTION('',(0.,0.,1.));
#242=DIRECTION('',(1.,0.,0.));
#243=DIRECTION('',(0.,0.,-1.));
#244=DIRECTION('',(-1.,0.,0.));
#245=DIRECTION('',(0.,0.,-1.));
#246=DIRECTION('',(-1.,0.,0.));
#247=DIRECTION('',(0.,0.,-1.));
#248=DIRECTION('',(-1.,0.,0.));
#249=DIRECTION('',(0.,0.,-1.));
#250=DIRECTION('',(-1.,0.,0.));
#251=DIRECTION('',(0.,0.,-1.));
#252=DIRECTION('',(-1.,0.,0.));
#253=DIRECTION('',(0.,0.,-1.));
#254=DIRECTION('',(-1.,0.,0.));
#255=DIRECTION('',(0.,0.,-1.));
#256=DIRECTION('',(-1.,0.,0.));
#257=DIRECTION('',(0.,0.,1.));
#258=DIRECTION('',(1.,0.,0.));
#259=DIRECTION('',(0.,0.,-1.));
#260=DIRECTION('',(-1.,0.,0.));
#261=DIRECTION('',(0.,0.,-1.));
#262=DIRECTION('',(-1.,0.,0.));
#263=DIRECTION('',(0.,0.,-1.));
#264=DIRECTION('',(-1.,0.,0.));
#265=DIRECTION('',(0.,0.,-1.));
#266=DIRECTION('',(-1.,0.,0.));
#267=DIRECTION('',(0.,0.,-1.));
#268=DIRECTION('',(-1.,0.,0.));
#269=DIRECTION('',(0.,0.,-1.));
#270=DIRECTION('',(-1.,0.,0.));
#271=DIRECTION('',(0.,0.,-1.));
#272=DIRECTION('',(-1.,0.,0.));
#273=CARTESIAN_POINT('',(0.,0.,0.));
#274=CARTESIAN_POINT('',(0.,3.49999999999999,9.5));
#275=CARTESIAN_POINT('',(0.,0.,9.49999999999999));
#276=CARTESIAN_POINT('',(-1.7,0.,9.49999999999999));
#277=CARTESIAN_POINT('',(0.,0.,9.49999999999999));
#278=CARTESIAN_POINT('',(-3.34999999999999,0.,9.49999999999999));
#279=CARTESIAN_POINT('',(0.,1.7,-9.5));
#280=CARTESIAN_POINT('',(0.,0.,-9.49999999999999));
#281=CARTESIAN_POINT('',(-3.34999999999999,0.,-9.49999999999999));
#282=CARTESIAN_POINT('',(0.,0.,-9.49999999999999));
#283=CARTESIAN_POINT('',(-1.7,0.,-9.49999999999999));
#284=CARTESIAN_POINT('',(0.,0.,-100.));
#285=CARTESIAN_POINT('',(0.,0.,9.1));
#286=CARTESIAN_POINT('',(-1.7,0.,9.1));
#287=CARTESIAN_POINT('',(0.,1.7,9.1));
#288=CARTESIAN_POINT('',(0.,0.,9.1));
#289=CARTESIAN_POINT('',(-1.9,0.,9.1));
#290=CARTESIAN_POINT('',(0.,0.,-100.));
#291=CARTESIAN_POINT('',(0.,0.,8.8));
#292=CARTESIAN_POINT('',(-1.9,0.,8.8));
#293=CARTESIAN_POINT('',(0.,1.9,8.8));
#294=CARTESIAN_POINT('',(0.,0.,8.8));
#295=CARTESIAN_POINT('',(-1.5,0.,8.8));
#296=CARTESIAN_POINT('',(0.,0.,-100.));
#297=CARTESIAN_POINT('',(0.,0.,-8.8));
#298=CARTESIAN_POINT('',(-1.5,0.,-8.8));
#299=CARTESIAN_POINT('',(0.,1.5,-8.8));
#300=CARTESIAN_POINT('',(0.,0.,-8.8));
#301=CARTESIAN_POINT('',(-1.9,0.,-8.8));
#302=CARTESIAN_POINT('',(0.,0.,-100.));
#303=CARTESIAN_POINT('',(0.,0.,-9.1));
#304=CARTESIAN_POINT('',(-1.9,0.,-9.1));
#305=CARTESIAN_POINT('',(0.,1.9,-9.1));
#306=CARTESIAN_POINT('',(0.,0.,-9.1));
#307=CARTESIAN_POINT('',(-1.7,0.,-9.1));
#308=CARTESIAN_POINT('',(0.,0.,-100.));
#309=CARTESIAN_POINT('',(0.,0.,-9.35));
#310=CARTESIAN_POINT('',(0.,0.,-9.35));
#311=CARTESIAN_POINT('',(-3.49999999999999,0.,-9.35));
#312=CARTESIAN_POINT('',(0.,0.,9.35));
#313=CARTESIAN_POINT('',(0.,0.,9.35));
#314=CARTESIAN_POINT('',(-3.49999999999999,0.,9.35));
#315=CARTESIAN_POINT('',(0.,0.,-100.));
#316=MECHANICAL_DESIGN_GEOMETRIC_PRESENTATION_REPRESENTATION('',(#175),
#317);
#317=(
GEOMETRIC_REPRESENTATION_CONTEXT(3)
GLOBAL_UNCERTAINTY_ASSIGNED_CONTEXT((#318))
GLOBAL_UNIT_ASSIGNED_CONTEXT((#321,#320,#319))
REPRESENTATION_CONTEXT('LM3L','TOP_LEVEL_ASSEMBLY_PART')
);
#318=UNCERTAINTY_MEASURE_WITH_UNIT(LENGTH_MEASURE(0.005),#321,
'DISTANCE_ACCURACY_VALUE','Maximum Tolerance applied to model');
#319=(
NAMED_UNIT(*)
SI_UNIT($,.STERADIAN.)
SOLID_ANGLE_UNIT()
);
#320=(
NAMED_UNIT(*)
PLANE_ANGLE_UNIT()
SI_UNIT($,.RADIAN.)
);
#321=(
LENGTH_UNIT()
NAMED_UNIT(*)
SI_UNIT(.MILLI.,.METRE.)
);
#322=PRODUCT_DEFINITION_SHAPE('','',#323);
#323=PRODUCT_DEFINITION('','',#325,#324);
#324=DESIGN_CONTEXT('',#331,'design');
#325=PRODUCT_DEFINITION_FORMATION_WITH_SPECIFIED_SOURCE('','',#327,
 .NOT_KNOWN.);
#326=PRODUCT_RELATED_PRODUCT_CATEGORY('','',(#327));
#327=PRODUCT('LM3L','LM3L','LM3L',(#329));
#328=PRODUCT_CATEGORY('','');
#329=MECHANICAL_CONTEXT('',#331,'mechanical');
#330=APPLICATION_PROTOCOL_DEFINITION('international standard',
'config_control_design',2010,#331);
#331=APPLICATION_CONTEXT(
'configuration controlled 3D designs of mechanical parts and assemblie
s');
ENDSEC;
END-ISO-10303-21;
