ISO-10303-21;
HEADER;
/* Generated by software containing ST-Developer
 * from STEP Tools, Inc. (www.steptools.com) 
 */
/* OPTION: using custom renumber hook */

FILE_DESCRIPTION(
/* description */ ('STEP AP203'),
/* implementation_level */ '2;1');

FILE_NAME(
/* name */ 'LMF10LUU-MX',
/* time_stamp */ '2022-08-23T03:53:35+02:00',
/* author */ ('License CC BY-ND 4.0'),
/* organization */ ('CADENAS'),
/* preprocessor_version */ 'ST-DEVELOPER v18.102',
/* originating_system */ 'PARTsolutions',
/* authorisation */ '  ');

FILE_SCHEMA (('CONFIG_CONTROL_DESIGN'));
ENDSEC;

DATA;
#10=PROPERTY_DEFINITION_REPRESENTATION(#14,#12);
#11=PROPERTY_DEFINITION_REPRESENTATION(#15,#13);
#12=REPRESENTATION('',(#16),#753);
#13=REPRESENTATION('',(#17),#753);
#14=PROPERTY_DEFINITION('pmi validation property','',#758);
#15=PROPERTY_DEFINITION('pmi validation property','',#758);
#16=VALUE_REPRESENTATION_ITEM('number of annotations',COUNT_MEASURE(0.));
#17=VALUE_REPRESENTATION_ITEM('number of views',COUNT_MEASURE(0.));
#18=SHAPE_REPRESENTATION_RELATIONSHIP('','',#430,#19);
#19=ADVANCED_BREP_SHAPE_REPRESENTATION('',(#428),#753);
#20=PLANE('',#438);
#21=PLANE('',#440);
#22=PLANE('',#449);
#23=PLANE('',#455);
#24=PLANE('',#460);
#25=PLANE('',#467);
#26=PLANE('',#472);
#27=PLANE('',#477);
#28=PLANE('',#482);
#29=PLANE('',#485);
#30=PLANE('',#491);
#31=PLANE('',#497);
#32=PLANE('',#501);
#33=TOROIDAL_SURFACE('',#435,8.90000000000002,0.599999999999984);
#34=TOROIDAL_SURFACE('',#443,8.90000000000001,0.599999999999989);
#35=TOROIDAL_SURFACE('',#447,9.2,0.3);
#36=ORIENTED_EDGE('',*,*,#110,.T.);
#37=ORIENTED_EDGE('',*,*,#111,.T.);
#38=ORIENTED_EDGE('',*,*,#112,.T.);
#39=ORIENTED_EDGE('',*,*,#113,.F.);
#40=ORIENTED_EDGE('',*,*,#114,.T.);
#41=ORIENTED_EDGE('',*,*,#112,.F.);
#42=ORIENTED_EDGE('',*,*,#115,.T.);
#43=ORIENTED_EDGE('',*,*,#116,.F.);
#44=ORIENTED_EDGE('',*,*,#117,.T.);
#45=ORIENTED_EDGE('',*,*,#115,.F.);
#46=ORIENTED_EDGE('',*,*,#118,.F.);
#47=ORIENTED_EDGE('',*,*,#117,.F.);
#48=ORIENTED_EDGE('',*,*,#119,.T.);
#49=ORIENTED_EDGE('',*,*,#110,.F.);
#50=ORIENTED_EDGE('',*,*,#120,.T.);
#51=ORIENTED_EDGE('',*,*,#119,.F.);
#52=ORIENTED_EDGE('',*,*,#113,.T.);
#53=ORIENTED_EDGE('',*,*,#120,.F.);
#54=ORIENTED_EDGE('',*,*,#121,.T.);
#55=ORIENTED_EDGE('',*,*,#122,.F.);
#56=ORIENTED_EDGE('',*,*,#123,.T.);
#57=ORIENTED_EDGE('',*,*,#124,.T.);
#58=ORIENTED_EDGE('',*,*,#125,.T.);
#59=ORIENTED_EDGE('',*,*,#126,.T.);
#60=ORIENTED_EDGE('',*,*,#111,.F.);
#61=ORIENTED_EDGE('',*,*,#121,.F.);
#62=ORIENTED_EDGE('',*,*,#127,.F.);
#63=ORIENTED_EDGE('',*,*,#128,.F.);
#64=ORIENTED_EDGE('',*,*,#129,.F.);
#65=ORIENTED_EDGE('',*,*,#130,.F.);
#66=ORIENTED_EDGE('',*,*,#118,.T.);
#67=ORIENTED_EDGE('',*,*,#122,.T.);
#68=ORIENTED_EDGE('',*,*,#131,.T.);
#69=ORIENTED_EDGE('',*,*,#126,.F.);
#70=ORIENTED_EDGE('',*,*,#132,.T.);
#71=ORIENTED_EDGE('',*,*,#131,.F.);
#72=ORIENTED_EDGE('',*,*,#130,.T.);
#73=ORIENTED_EDGE('',*,*,#132,.F.);
#74=ORIENTED_EDGE('',*,*,#133,.T.);
#75=ORIENTED_EDGE('',*,*,#125,.F.);
#76=ORIENTED_EDGE('',*,*,#134,.T.);
#77=ORIENTED_EDGE('',*,*,#133,.F.);
#78=ORIENTED_EDGE('',*,*,#129,.T.);
#79=ORIENTED_EDGE('',*,*,#134,.F.);
#80=ORIENTED_EDGE('',*,*,#135,.T.);
#81=ORIENTED_EDGE('',*,*,#124,.F.);
#82=ORIENTED_EDGE('',*,*,#136,.T.);
#83=ORIENTED_EDGE('',*,*,#135,.F.);
#84=ORIENTED_EDGE('',*,*,#128,.T.);
#85=ORIENTED_EDGE('',*,*,#136,.F.);
#86=ORIENTED_EDGE('',*,*,#137,.T.);
#87=ORIENTED_EDGE('',*,*,#123,.F.);
#88=ORIENTED_EDGE('',*,*,#138,.T.);
#89=ORIENTED_EDGE('',*,*,#137,.F.);
#90=ORIENTED_EDGE('',*,*,#127,.T.);
#91=ORIENTED_EDGE('',*,*,#138,.F.);
#92=ORIENTED_EDGE('',*,*,#139,.T.);
#93=ORIENTED_EDGE('',*,*,#140,.F.);
#94=ORIENTED_EDGE('',*,*,#116,.T.);
#95=ORIENTED_EDGE('',*,*,#139,.F.);
#96=ORIENTED_EDGE('',*,*,#140,.T.);
#97=ORIENTED_EDGE('',*,*,#141,.F.);
#98=ORIENTED_EDGE('',*,*,#141,.T.);
#99=ORIENTED_EDGE('',*,*,#142,.F.);
#100=ORIENTED_EDGE('',*,*,#142,.T.);
#101=ORIENTED_EDGE('',*,*,#143,.F.);
#102=ORIENTED_EDGE('',*,*,#144,.T.);
#103=ORIENTED_EDGE('',*,*,#114,.F.);
#104=ORIENTED_EDGE('',*,*,#145,.T.);
#105=ORIENTED_EDGE('',*,*,#144,.F.);
#106=ORIENTED_EDGE('',*,*,#146,.T.);
#107=ORIENTED_EDGE('',*,*,#145,.F.);
#108=ORIENTED_EDGE('',*,*,#143,.T.);
#109=ORIENTED_EDGE('',*,*,#146,.F.);
#110=EDGE_CURVE('',#147,#147,#184,.T.);
#111=EDGE_CURVE('',#148,#148,#185,.F.);
#112=EDGE_CURVE('',#149,#149,#186,.T.);
#113=EDGE_CURVE('',#150,#150,#187,.T.);
#114=EDGE_CURVE('',#151,#151,#188,.T.);
#115=EDGE_CURVE('',#152,#152,#189,.T.);
#116=EDGE_CURVE('',#153,#153,#190,.T.);
#117=EDGE_CURVE('',#154,#154,#191,.T.);
#118=EDGE_CURVE('',#155,#155,#192,.F.);
#119=EDGE_CURVE('',#156,#156,#193,.T.);
#120=EDGE_CURVE('',#157,#157,#194,.T.);
#121=EDGE_CURVE('',#158,#158,#195,.T.);
#122=EDGE_CURVE('',#159,#159,#196,.T.);
#123=EDGE_CURVE('',#160,#160,#197,.T.);
#124=EDGE_CURVE('',#161,#161,#198,.T.);
#125=EDGE_CURVE('',#162,#162,#199,.T.);
#126=EDGE_CURVE('',#163,#163,#200,.T.);
#127=EDGE_CURVE('',#164,#164,#201,.T.);
#128=EDGE_CURVE('',#165,#165,#202,.T.);
#129=EDGE_CURVE('',#166,#166,#203,.T.);
#130=EDGE_CURVE('',#167,#167,#204,.T.);
#131=EDGE_CURVE('',#168,#168,#205,.T.);
#132=EDGE_CURVE('',#169,#169,#206,.T.);
#133=EDGE_CURVE('',#170,#170,#207,.T.);
#134=EDGE_CURVE('',#171,#171,#208,.T.);
#135=EDGE_CURVE('',#172,#172,#209,.T.);
#136=EDGE_CURVE('',#173,#173,#210,.T.);
#137=EDGE_CURVE('',#174,#174,#211,.T.);
#138=EDGE_CURVE('',#175,#175,#212,.T.);
#139=EDGE_CURVE('',#176,#176,#213,.T.);
#140=EDGE_CURVE('',#177,#177,#214,.T.);
#141=EDGE_CURVE('',#178,#178,#215,.T.);
#142=EDGE_CURVE('',#179,#179,#216,.T.);
#143=EDGE_CURVE('',#180,#180,#217,.T.);
#144=EDGE_CURVE('',#181,#181,#218,.T.);
#145=EDGE_CURVE('',#182,#182,#219,.T.);
#146=EDGE_CURVE('',#183,#183,#220,.T.);
#147=VERTEX_POINT('',#647);
#148=VERTEX_POINT('',#649);
#149=VERTEX_POINT('',#652);
#150=VERTEX_POINT('',#654);
#151=VERTEX_POINT('',#657);
#152=VERTEX_POINT('',#660);
#153=VERTEX_POINT('',#662);
#154=VERTEX_POINT('',#665);
#155=VERTEX_POINT('',#668);
#156=VERTEX_POINT('',#671);
#157=VERTEX_POINT('',#674);
#158=VERTEX_POINT('',#678);
#159=VERTEX_POINT('',#680);
#160=VERTEX_POINT('',#683);
#161=VERTEX_POINT('',#685);
#162=VERTEX_POINT('',#687);
#163=VERTEX_POINT('',#689);
#164=VERTEX_POINT('',#692);
#165=VERTEX_POINT('',#694);
#166=VERTEX_POINT('',#696);
#167=VERTEX_POINT('',#698);
#168=VERTEX_POINT('',#701);
#169=VERTEX_POINT('',#704);
#170=VERTEX_POINT('',#708);
#171=VERTEX_POINT('',#711);
#172=VERTEX_POINT('',#715);
#173=VERTEX_POINT('',#718);
#174=VERTEX_POINT('',#722);
#175=VERTEX_POINT('',#725);
#176=VERTEX_POINT('',#729);
#177=VERTEX_POINT('',#731);
#178=VERTEX_POINT('',#735);
#179=VERTEX_POINT('',#738);
#180=VERTEX_POINT('',#741);
#181=VERTEX_POINT('',#744);
#182=VERTEX_POINT('',#747);
#183=VERTEX_POINT('',#750);
#184=CIRCLE('',#433,9.5);
#185=CIRCLE('',#434,9.5);
#186=CIRCLE('',#436,8.90000000000003);
#187=CIRCLE('',#437,9.5);
#188=CIRCLE('',#439,5.3);
#189=CIRCLE('',#441,8.9);
#190=CIRCLE('',#442,5.29999999999999);
#191=CIRCLE('',#444,9.5);
#192=CIRCLE('',#446,9.5);
#193=CIRCLE('',#448,9.2);
#194=CIRCLE('',#450,9.5);
#195=CIRCLE('',#453,20.);
#196=CIRCLE('',#454,20.);
#197=CIRCLE('',#456,2.25);
#198=CIRCLE('',#457,2.25);
#199=CIRCLE('',#458,2.25);
#200=CIRCLE('',#459,2.25);
#201=CIRCLE('',#461,3.75);
#202=CIRCLE('',#462,3.75);
#203=CIRCLE('',#463,3.75);
#204=CIRCLE('',#464,3.75);
#205=CIRCLE('',#466,2.25);
#206=CIRCLE('',#468,3.75);
#207=CIRCLE('',#471,2.25);
#208=CIRCLE('',#473,3.75);
#209=CIRCLE('',#476,2.25);
#210=CIRCLE('',#478,3.75);
#211=CIRCLE('',#481,2.25);
#212=CIRCLE('',#483,3.75);
#213=CIRCLE('',#486,5.29999999999999);
#214=CIRCLE('',#487,5.6);
#215=CIRCLE('',#490,5.6);
#216=CIRCLE('',#492,5.);
#217=CIRCLE('',#494,5.);
#218=CIRCLE('',#496,5.3);
#219=CIRCLE('',#498,5.6);
#220=CIRCLE('',#500,5.6);
#221=EDGE_LOOP('',(#36));
#222=EDGE_LOOP('',(#37));
#223=EDGE_LOOP('',(#38));
#224=EDGE_LOOP('',(#39));
#225=EDGE_LOOP('',(#40));
#226=EDGE_LOOP('',(#41));
#227=EDGE_LOOP('',(#42));
#228=EDGE_LOOP('',(#43));
#229=EDGE_LOOP('',(#44));
#230=EDGE_LOOP('',(#45));
#231=EDGE_LOOP('',(#46));
#232=EDGE_LOOP('',(#47));
#233=EDGE_LOOP('',(#48));
#234=EDGE_LOOP('',(#49));
#235=EDGE_LOOP('',(#50));
#236=EDGE_LOOP('',(#51));
#237=EDGE_LOOP('',(#52));
#238=EDGE_LOOP('',(#53));
#239=EDGE_LOOP('',(#54));
#240=EDGE_LOOP('',(#55));
#241=EDGE_LOOP('',(#56));
#242=EDGE_LOOP('',(#57));
#243=EDGE_LOOP('',(#58));
#244=EDGE_LOOP('',(#59));
#245=EDGE_LOOP('',(#60));
#246=EDGE_LOOP('',(#61));
#247=EDGE_LOOP('',(#62));
#248=EDGE_LOOP('',(#63));
#249=EDGE_LOOP('',(#64));
#250=EDGE_LOOP('',(#65));
#251=EDGE_LOOP('',(#66));
#252=EDGE_LOOP('',(#67));
#253=EDGE_LOOP('',(#68));
#254=EDGE_LOOP('',(#69));
#255=EDGE_LOOP('',(#70));
#256=EDGE_LOOP('',(#71));
#257=EDGE_LOOP('',(#72));
#258=EDGE_LOOP('',(#73));
#259=EDGE_LOOP('',(#74));
#260=EDGE_LOOP('',(#75));
#261=EDGE_LOOP('',(#76));
#262=EDGE_LOOP('',(#77));
#263=EDGE_LOOP('',(#78));
#264=EDGE_LOOP('',(#79));
#265=EDGE_LOOP('',(#80));
#266=EDGE_LOOP('',(#81));
#267=EDGE_LOOP('',(#82));
#268=EDGE_LOOP('',(#83));
#269=EDGE_LOOP('',(#84));
#270=EDGE_LOOP('',(#85));
#271=EDGE_LOOP('',(#86));
#272=EDGE_LOOP('',(#87));
#273=EDGE_LOOP('',(#88));
#274=EDGE_LOOP('',(#89));
#275=EDGE_LOOP('',(#90));
#276=EDGE_LOOP('',(#91));
#277=EDGE_LOOP('',(#92));
#278=EDGE_LOOP('',(#93));
#279=EDGE_LOOP('',(#94));
#280=EDGE_LOOP('',(#95));
#281=EDGE_LOOP('',(#96));
#282=EDGE_LOOP('',(#97));
#283=EDGE_LOOP('',(#98));
#284=EDGE_LOOP('',(#99));
#285=EDGE_LOOP('',(#100));
#286=EDGE_LOOP('',(#101));
#287=EDGE_LOOP('',(#102));
#288=EDGE_LOOP('',(#103));
#289=EDGE_LOOP('',(#104));
#290=EDGE_LOOP('',(#105));
#291=EDGE_LOOP('',(#106));
#292=EDGE_LOOP('',(#107));
#293=EDGE_LOOP('',(#108));
#294=EDGE_LOOP('',(#109));
#295=FACE_BOUND('',#221,.T.);
#296=FACE_BOUND('',#222,.T.);
#297=FACE_BOUND('',#223,.T.);
#298=FACE_BOUND('',#224,.T.);
#299=FACE_BOUND('',#225,.T.);
#300=FACE_BOUND('',#226,.T.);
#301=FACE_BOUND('',#227,.T.);
#302=FACE_BOUND('',#228,.T.);
#303=FACE_BOUND('',#229,.T.);
#304=FACE_BOUND('',#230,.T.);
#305=FACE_BOUND('',#231,.T.);
#306=FACE_BOUND('',#232,.T.);
#307=FACE_BOUND('',#233,.T.);
#308=FACE_BOUND('',#234,.T.);
#309=FACE_BOUND('',#235,.T.);
#310=FACE_BOUND('',#236,.T.);
#311=FACE_BOUND('',#237,.T.);
#312=FACE_BOUND('',#238,.T.);
#313=FACE_BOUND('',#239,.T.);
#314=FACE_BOUND('',#240,.T.);
#315=FACE_BOUND('',#241,.T.);
#316=FACE_BOUND('',#242,.T.);
#317=FACE_BOUND('',#243,.T.);
#318=FACE_BOUND('',#244,.T.);
#319=FACE_BOUND('',#245,.T.);
#320=FACE_BOUND('',#246,.T.);
#321=FACE_BOUND('',#247,.T.);
#322=FACE_BOUND('',#248,.T.);
#323=FACE_BOUND('',#249,.T.);
#324=FACE_BOUND('',#250,.T.);
#325=FACE_BOUND('',#251,.T.);
#326=FACE_BOUND('',#252,.T.);
#327=FACE_BOUND('',#253,.T.);
#328=FACE_BOUND('',#254,.T.);
#329=FACE_BOUND('',#255,.T.);
#330=FACE_BOUND('',#256,.T.);
#331=FACE_BOUND('',#257,.T.);
#332=FACE_BOUND('',#258,.T.);
#333=FACE_BOUND('',#259,.T.);
#334=FACE_BOUND('',#260,.T.);
#335=FACE_BOUND('',#261,.T.);
#336=FACE_BOUND('',#262,.T.);
#337=FACE_BOUND('',#263,.T.);
#338=FACE_BOUND('',#264,.T.);
#339=FACE_BOUND('',#265,.T.);
#340=FACE_BOUND('',#266,.T.);
#341=FACE_BOUND('',#267,.T.);
#342=FACE_BOUND('',#268,.T.);
#343=FACE_BOUND('',#269,.T.);
#344=FACE_BOUND('',#270,.T.);
#345=FACE_BOUND('',#271,.T.);
#346=FACE_BOUND('',#272,.T.);
#347=FACE_BOUND('',#273,.T.);
#348=FACE_BOUND('',#274,.T.);
#349=FACE_BOUND('',#275,.T.);
#350=FACE_BOUND('',#276,.T.);
#351=FACE_BOUND('',#277,.T.);
#352=FACE_BOUND('',#278,.T.);
#353=FACE_BOUND('',#279,.T.);
#354=FACE_BOUND('',#280,.T.);
#355=FACE_BOUND('',#281,.T.);
#356=FACE_BOUND('',#282,.T.);
#357=FACE_BOUND('',#283,.T.);
#358=FACE_BOUND('',#284,.T.);
#359=FACE_BOUND('',#285,.T.);
#360=FACE_BOUND('',#286,.T.);
#361=FACE_BOUND('',#287,.T.);
#362=FACE_BOUND('',#288,.T.);
#363=FACE_BOUND('',#289,.T.);
#364=FACE_BOUND('',#290,.T.);
#365=FACE_BOUND('',#291,.T.);
#366=FACE_BOUND('',#292,.T.);
#367=FACE_BOUND('',#293,.T.);
#368=FACE_BOUND('',#294,.T.);
#369=CYLINDRICAL_SURFACE('',#432,9.5);
#370=CYLINDRICAL_SURFACE('',#445,9.5);
#371=CYLINDRICAL_SURFACE('',#451,9.5);
#372=CYLINDRICAL_SURFACE('',#452,20.);
#373=CYLINDRICAL_SURFACE('',#465,2.25);
#374=CYLINDRICAL_SURFACE('',#469,3.75);
#375=CYLINDRICAL_SURFACE('',#470,2.25);
#376=CYLINDRICAL_SURFACE('',#474,3.75);
#377=CYLINDRICAL_SURFACE('',#475,2.25);
#378=CYLINDRICAL_SURFACE('',#479,3.75);
#379=CYLINDRICAL_SURFACE('',#480,2.25);
#380=CYLINDRICAL_SURFACE('',#484,3.75);
#381=CYLINDRICAL_SURFACE('',#488,5.29999999999999);
#382=CYLINDRICAL_SURFACE('',#489,5.6);
#383=CYLINDRICAL_SURFACE('',#493,5.);
#384=CYLINDRICAL_SURFACE('',#495,5.3);
#385=CYLINDRICAL_SURFACE('',#499,5.6);
#386=ADVANCED_FACE('',(#295,#296),#369,.T.);
#387=ADVANCED_FACE('',(#297,#298),#33,.T.);
#388=ADVANCED_FACE('',(#299,#300),#20,.T.);
#389=ADVANCED_FACE('',(#301,#302),#21,.T.);
#390=ADVANCED_FACE('',(#303,#304),#34,.T.);
#391=ADVANCED_FACE('',(#305,#306),#370,.T.);
#392=ADVANCED_FACE('',(#307,#308),#35,.T.);
#393=ADVANCED_FACE('',(#309,#310),#22,.T.);
#394=ADVANCED_FACE('',(#311,#312),#371,.T.);
#395=ADVANCED_FACE('',(#313,#314),#372,.T.);
#396=ADVANCED_FACE('',(#315,#316,#317,#318,#319,#320),#23,.F.);
#397=ADVANCED_FACE('',(#321,#322,#323,#324,#325,#326),#24,.T.);
#398=ADVANCED_FACE('',(#327,#328),#373,.F.);
#399=ADVANCED_FACE('',(#329,#330),#25,.T.);
#400=ADVANCED_FACE('',(#331,#332),#374,.F.);
#401=ADVANCED_FACE('',(#333,#334),#375,.F.);
#402=ADVANCED_FACE('',(#335,#336),#26,.T.);
#403=ADVANCED_FACE('',(#337,#338),#376,.F.);
#404=ADVANCED_FACE('',(#339,#340),#377,.F.);
#405=ADVANCED_FACE('',(#341,#342),#27,.T.);
#406=ADVANCED_FACE('',(#343,#344),#378,.F.);
#407=ADVANCED_FACE('',(#345,#346),#379,.F.);
#408=ADVANCED_FACE('',(#347,#348),#28,.T.);
#409=ADVANCED_FACE('',(#349,#350),#380,.F.);
#410=ADVANCED_FACE('',(#351,#352),#29,.T.);
#411=ADVANCED_FACE('',(#353,#354),#381,.F.);
#412=ADVANCED_FACE('',(#355,#356),#382,.F.);
#413=ADVANCED_FACE('',(#357,#358),#30,.T.);
#414=ADVANCED_FACE('',(#359,#360),#383,.F.);
#415=ADVANCED_FACE('',(#361,#362),#384,.F.);
#416=ADVANCED_FACE('',(#363,#364),#31,.T.);
#417=ADVANCED_FACE('',(#365,#366),#385,.F.);
#418=ADVANCED_FACE('',(#367,#368),#32,.T.);
#419=CLOSED_SHELL('',(#386,#387,#388,#389,#390,#391,#392,#393,#394,#395,
#396,#397,#398,#399,#400,#401,#402,#403,#404,#405,#406,#407,#408,#409,#410,
#411,#412,#413,#414,#415,#416,#417,#418));
#420=STYLED_ITEM('',(#421),#428);
#421=PRESENTATION_STYLE_ASSIGNMENT((#422));
#422=SURFACE_STYLE_USAGE(.BOTH.,#423);
#423=SURFACE_SIDE_STYLE('',(#424));
#424=SURFACE_STYLE_FILL_AREA(#425);
#425=FILL_AREA_STYLE('',(#426));
#426=FILL_AREA_STYLE_COLOUR('',#427);
#427=COLOUR_RGB('',0.689999997615814,0.689999997615814,0.689999997615814);
#428=MANIFOLD_SOLID_BREP('LMF10LUU-MX',#419);
#429=SHAPE_DEFINITION_REPRESENTATION(#758,#430);
#430=SHAPE_REPRESENTATION('LMF10LUU-MX',(#431),#753);
#431=AXIS2_PLACEMENT_3D('',#644,#502,#503);
#432=AXIS2_PLACEMENT_3D('',#645,#504,#505);
#433=AXIS2_PLACEMENT_3D('',#646,#506,#507);
#434=AXIS2_PLACEMENT_3D('',#648,#508,#509);
#435=AXIS2_PLACEMENT_3D('',#650,#510,#511);
#436=AXIS2_PLACEMENT_3D('',#651,#512,#513);
#437=AXIS2_PLACEMENT_3D('',#653,#514,#515);
#438=AXIS2_PLACEMENT_3D('',#655,#516,#517);
#439=AXIS2_PLACEMENT_3D('',#656,#518,#519);
#440=AXIS2_PLACEMENT_3D('',#658,#520,#521);
#441=AXIS2_PLACEMENT_3D('',#659,#522,#523);
#442=AXIS2_PLACEMENT_3D('',#661,#524,#525);
#443=AXIS2_PLACEMENT_3D('',#663,#526,#527);
#444=AXIS2_PLACEMENT_3D('',#664,#528,#529);
#445=AXIS2_PLACEMENT_3D('',#666,#530,#531);
#446=AXIS2_PLACEMENT_3D('',#667,#532,#533);
#447=AXIS2_PLACEMENT_3D('',#669,#534,#535);
#448=AXIS2_PLACEMENT_3D('',#670,#536,#537);
#449=AXIS2_PLACEMENT_3D('',#672,#538,#539);
#450=AXIS2_PLACEMENT_3D('',#673,#540,#541);
#451=AXIS2_PLACEMENT_3D('',#675,#542,#543);
#452=AXIS2_PLACEMENT_3D('',#676,#544,#545);
#453=AXIS2_PLACEMENT_3D('',#677,#546,#547);
#454=AXIS2_PLACEMENT_3D('',#679,#548,#549);
#455=AXIS2_PLACEMENT_3D('',#681,#550,#551);
#456=AXIS2_PLACEMENT_3D('',#682,#552,#553);
#457=AXIS2_PLACEMENT_3D('',#684,#554,#555);
#458=AXIS2_PLACEMENT_3D('',#686,#556,#557);
#459=AXIS2_PLACEMENT_3D('',#688,#558,#559);
#460=AXIS2_PLACEMENT_3D('',#690,#560,#561);
#461=AXIS2_PLACEMENT_3D('',#691,#562,#563);
#462=AXIS2_PLACEMENT_3D('',#693,#564,#565);
#463=AXIS2_PLACEMENT_3D('',#695,#566,#567);
#464=AXIS2_PLACEMENT_3D('',#697,#568,#569);
#465=AXIS2_PLACEMENT_3D('',#699,#570,#571);
#466=AXIS2_PLACEMENT_3D('',#700,#572,#573);
#467=AXIS2_PLACEMENT_3D('',#702,#574,#575);
#468=AXIS2_PLACEMENT_3D('',#703,#576,#577);
#469=AXIS2_PLACEMENT_3D('',#705,#578,#579);
#470=AXIS2_PLACEMENT_3D('',#706,#580,#581);
#471=AXIS2_PLACEMENT_3D('',#707,#582,#583);
#472=AXIS2_PLACEMENT_3D('',#709,#584,#585);
#473=AXIS2_PLACEMENT_3D('',#710,#586,#587);
#474=AXIS2_PLACEMENT_3D('',#712,#588,#589);
#475=AXIS2_PLACEMENT_3D('',#713,#590,#591);
#476=AXIS2_PLACEMENT_3D('',#714,#592,#593);
#477=AXIS2_PLACEMENT_3D('',#716,#594,#595);
#478=AXIS2_PLACEMENT_3D('',#717,#596,#597);
#479=AXIS2_PLACEMENT_3D('',#719,#598,#599);
#480=AXIS2_PLACEMENT_3D('',#720,#600,#601);
#481=AXIS2_PLACEMENT_3D('',#721,#602,#603);
#482=AXIS2_PLACEMENT_3D('',#723,#604,#605);
#483=AXIS2_PLACEMENT_3D('',#724,#606,#607);
#484=AXIS2_PLACEMENT_3D('',#726,#608,#609);
#485=AXIS2_PLACEMENT_3D('',#727,#610,#611);
#486=AXIS2_PLACEMENT_3D('',#728,#612,#613);
#487=AXIS2_PLACEMENT_3D('',#730,#614,#615);
#488=AXIS2_PLACEMENT_3D('',#732,#616,#617);
#489=AXIS2_PLACEMENT_3D('',#733,#618,#619);
#490=AXIS2_PLACEMENT_3D('',#734,#620,#621);
#491=AXIS2_PLACEMENT_3D('',#736,#622,#623);
#492=AXIS2_PLACEMENT_3D('',#737,#624,#625);
#493=AXIS2_PLACEMENT_3D('',#739,#626,#627);
#494=AXIS2_PLACEMENT_3D('',#740,#628,#629);
#495=AXIS2_PLACEMENT_3D('',#742,#630,#631);
#496=AXIS2_PLACEMENT_3D('',#743,#632,#633);
#497=AXIS2_PLACEMENT_3D('',#745,#634,#635);
#498=AXIS2_PLACEMENT_3D('',#746,#636,#637);
#499=AXIS2_PLACEMENT_3D('',#748,#638,#639);
#500=AXIS2_PLACEMENT_3D('',#749,#640,#641);
#501=AXIS2_PLACEMENT_3D('',#751,#642,#643);
#502=DIRECTION('',(0.,0.,1.));
#503=DIRECTION('',(1.,0.,0.));
#504=DIRECTION('',(1.,0.,0.));
#505=DIRECTION('',(0.,0.,-1.));
#506=DIRECTION('',(1.,0.,0.));
#507=DIRECTION('',(0.,0.,-1.));
#508=DIRECTION('',(1.,0.,0.));
#509=DIRECTION('',(0.,0.,-1.));
#510=DIRECTION('',(1.,0.,0.));
#511=DIRECTION('',(0.,0.,-1.));
#512=DIRECTION('',(1.,0.,0.));
#513=DIRECTION('',(0.,0.,-1.));
#514=DIRECTION('',(1.,0.,0.));
#515=DIRECTION('',(0.,0.,-1.));
#516=DIRECTION('',(-1.,0.,0.));
#517=DIRECTION('',(0.,0.,1.));
#518=DIRECTION('',(1.,0.,0.));
#519=DIRECTION('',(0.,0.,-1.));
#520=DIRECTION('',(1.,0.,0.));
#521=DIRECTION('',(0.,0.,-1.));
#522=DIRECTION('',(1.,0.,0.));
#523=DIRECTION('',(0.,0.,-1.));
#524=DIRECTION('',(1.,0.,0.));
#525=DIRECTION('',(0.,0.,-1.));
#526=DIRECTION('',(1.,0.,0.));
#527=DIRECTION('',(0.,0.,-1.));
#528=DIRECTION('',(1.,0.,0.));
#529=DIRECTION('',(0.,0.,-1.));
#530=DIRECTION('',(1.,0.,0.));
#531=DIRECTION('',(0.,0.,-1.));
#532=DIRECTION('',(1.,0.,0.));
#533=DIRECTION('',(0.,0.,-1.));
#534=DIRECTION('',(1.,0.,0.));
#535=DIRECTION('',(0.,0.,-1.));
#536=DIRECTION('',(1.,0.,0.));
#537=DIRECTION('',(0.,0.,-1.));
#538=DIRECTION('',(1.,0.,0.));
#539=DIRECTION('',(0.,0.,-1.));
#540=DIRECTION('',(1.,0.,0.));
#541=DIRECTION('',(0.,0.,-1.));
#542=DIRECTION('',(1.,0.,0.));
#543=DIRECTION('',(0.,0.,-1.));
#544=DIRECTION('',(1.,0.,0.));
#545=DIRECTION('',(0.,0.,-1.));
#546=DIRECTION('',(1.,0.,0.));
#547=DIRECTION('',(0.,0.,-1.));
#548=DIRECTION('',(1.,0.,0.));
#549=DIRECTION('',(0.,0.,-1.));
#550=DIRECTION('',(1.,0.,0.));
#551=DIRECTION('',(0.,0.,-1.));
#552=DIRECTION('',(1.,0.,0.));
#553=DIRECTION('',(0.,0.,-1.));
#554=DIRECTION('',(1.,0.,0.));
#555=DIRECTION('',(0.,0.,-1.));
#556=DIRECTION('',(1.,0.,0.));
#557=DIRECTION('',(0.,0.,-1.));
#558=DIRECTION('',(1.,0.,0.));
#559=DIRECTION('',(0.,0.,-1.));
#560=DIRECTION('',(1.,0.,0.));
#561=DIRECTION('',(0.,0.,-1.));
#562=DIRECTION('',(1.,0.,0.));
#563=DIRECTION('',(0.,0.,-1.));
#564=DIRECTION('',(1.,0.,0.));
#565=DIRECTION('',(0.,0.,-1.));
#566=DIRECTION('',(1.,0.,0.));
#567=DIRECTION('',(0.,0.,-1.));
#568=DIRECTION('',(1.,0.,0.));
#569=DIRECTION('',(0.,0.,-1.));
#570=DIRECTION('',(1.,0.,0.));
#571=DIRECTION('',(0.,0.,-1.));
#572=DIRECTION('',(1.,0.,0.));
#573=DIRECTION('',(0.,0.,-1.));
#574=DIRECTION('',(1.,0.,0.));
#575=DIRECTION('',(0.,0.,-1.));
#576=DIRECTION('',(1.,0.,0.));
#577=DIRECTION('',(0.,0.,-1.));
#578=DIRECTION('',(1.,0.,0.));
#579=DIRECTION('',(0.,0.,-1.));
#580=DIRECTION('',(1.,0.,0.));
#581=DIRECTION('',(0.,0.,-1.));
#582=DIRECTION('',(1.,0.,0.));
#583=DIRECTION('',(0.,0.,-1.));
#584=DIRECTION('',(1.,0.,0.));
#585=DIRECTION('',(0.,0.,-1.));
#586=DIRECTION('',(1.,0.,0.));
#587=DIRECTION('',(0.,0.,-1.));
#588=DIRECTION('',(1.,0.,0.));
#589=DIRECTION('',(0.,0.,-1.));
#590=DIRECTION('',(1.,0.,0.));
#591=DIRECTION('',(0.,0.,-1.));
#592=DIRECTION('',(1.,0.,0.));
#593=DIRECTION('',(0.,0.,-1.));
#594=DIRECTION('',(1.,0.,0.));
#595=DIRECTION('',(0.,0.,-1.));
#596=DIRECTION('',(1.,0.,0.));
#597=DIRECTION('',(0.,0.,-1.));
#598=DIRECTION('',(1.,0.,0.));
#599=DIRECTION('',(0.,0.,-1.));
#600=DIRECTION('',(1.,0.,0.));
#601=DIRECTION('',(0.,0.,-1.));
#602=DIRECTION('',(1.,0.,0.));
#603=DIRECTION('',(0.,0.,-1.));
#604=DIRECTION('',(1.,0.,0.));
#605=DIRECTION('',(0.,0.,-1.));
#606=DIRECTION('',(1.,0.,0.));
#607=DIRECTION('',(0.,0.,-1.));
#608=DIRECTION('',(1.,0.,0.));
#609=DIRECTION('',(0.,0.,-1.));
#610=DIRECTION('',(-1.,0.,0.));
#611=DIRECTION('',(0.,0.,1.));
#612=DIRECTION('',(1.,0.,0.));
#613=DIRECTION('',(0.,0.,-1.));
#614=DIRECTION('',(1.,0.,0.));
#615=DIRECTION('',(0.,0.,-1.));
#616=DIRECTION('',(1.,0.,0.));
#617=DIRECTION('',(0.,0.,-1.));
#618=DIRECTION('',(1.,0.,0.));
#619=DIRECTION('',(0.,0.,-1.));
#620=DIRECTION('',(1.,0.,0.));
#621=DIRECTION('',(0.,0.,-1.));
#622=DIRECTION('',(1.,0.,0.));
#623=DIRECTION('',(0.,0.,-1.));
#624=DIRECTION('',(1.,0.,0.));
#625=DIRECTION('',(0.,0.,-1.));
#626=DIRECTION('',(1.,0.,0.));
#627=DIRECTION('',(0.,0.,-1.));
#628=DIRECTION('',(1.,0.,0.));
#629=DIRECTION('',(0.,0.,-1.));
#630=DIRECTION('',(1.,0.,0.));
#631=DIRECTION('',(0.,0.,-1.));
#632=DIRECTION('',(1.,0.,0.));
#633=DIRECTION('',(0.,0.,-1.));
#634=DIRECTION('',(1.,0.,0.));
#635=DIRECTION('',(0.,0.,-1.));
#636=DIRECTION('',(1.,0.,0.));
#637=DIRECTION('',(0.,0.,-1.));
#638=DIRECTION('',(1.,0.,0.));
#639=DIRECTION('',(0.,0.,-1.));
#640=DIRECTION('',(1.,0.,0.));
#641=DIRECTION('',(0.,0.,-1.));
#642=DIRECTION('',(-1.,0.,0.));
#643=DIRECTION('',(0.,0.,1.));
#644=CARTESIAN_POINT('',(0.,0.,0.));
#645=CARTESIAN_POINT('',(500.,0.,0.));
#646=CARTESIAN_POINT('',(-27.2,0.,0.));
#647=CARTESIAN_POINT('',(-27.2,0.,-9.5));
#648=CARTESIAN_POINT('',(21.5,0.,0.));
#649=CARTESIAN_POINT('',(21.5,0.,-9.5));
#650=CARTESIAN_POINT('',(-31.9,0.,0.));
#651=CARTESIAN_POINT('',(-32.5,0.,0.));
#652=CARTESIAN_POINT('',(-32.5,0.,-8.90000000000003));
#653=CARTESIAN_POINT('',(-31.9,0.,0.));
#654=CARTESIAN_POINT('',(-31.9,0.,-9.5));
#655=CARTESIAN_POINT('',(-32.5,8.90000000000003,0.));
#656=CARTESIAN_POINT('',(-32.5,0.,0.));
#657=CARTESIAN_POINT('',(-32.5,0.,-5.3));
#658=CARTESIAN_POINT('',(32.5,5.,0.));
#659=CARTESIAN_POINT('',(32.5,0.,0.));
#660=CARTESIAN_POINT('',(32.5,0.,-8.9));
#661=CARTESIAN_POINT('',(32.5,0.,0.));
#662=CARTESIAN_POINT('',(32.5,0.,-5.29999999999999));
#663=CARTESIAN_POINT('',(31.9,0.,0.));
#664=CARTESIAN_POINT('',(31.9,0.,0.));
#665=CARTESIAN_POINT('',(31.9,0.,-9.5));
#666=CARTESIAN_POINT('',(500.,0.,0.));
#667=CARTESIAN_POINT('',(27.5,0.,0.));
#668=CARTESIAN_POINT('',(27.5,0.,-9.5));
#669=CARTESIAN_POINT('',(-27.2,0.,0.));
#670=CARTESIAN_POINT('',(-27.5,0.,0.));
#671=CARTESIAN_POINT('',(-27.5,0.,-9.2));
#672=CARTESIAN_POINT('',(-27.5,9.2,0.));
#673=CARTESIAN_POINT('',(-27.5,0.,0.));
#674=CARTESIAN_POINT('',(-27.5,0.,-9.5));
#675=CARTESIAN_POINT('',(500.,0.,0.));
#676=CARTESIAN_POINT('',(21.5,0.,0.));
#677=CARTESIAN_POINT('',(21.5,0.,0.));
#678=CARTESIAN_POINT('',(21.5,0.,-20.));
#679=CARTESIAN_POINT('',(27.5,0.,0.));
#680=CARTESIAN_POINT('',(27.5,0.,-20.));
#681=CARTESIAN_POINT('',(21.5,0.,0.));
#682=CARTESIAN_POINT('',(21.5,0.,14.5));
#683=CARTESIAN_POINT('',(21.5,0.,12.25));
#684=CARTESIAN_POINT('',(21.5,-14.5,0.));
#685=CARTESIAN_POINT('',(21.5,-14.5,-2.25));
#686=CARTESIAN_POINT('',(21.5,0.,-14.5));
#687=CARTESIAN_POINT('',(21.5,0.,-16.75));
#688=CARTESIAN_POINT('',(21.5,14.5,0.));
#689=CARTESIAN_POINT('',(21.5,14.5,-2.25));
#690=CARTESIAN_POINT('',(27.5,0.,0.));
#691=CARTESIAN_POINT('',(27.5,0.,14.5));
#692=CARTESIAN_POINT('',(27.5,0.,10.75));
#693=CARTESIAN_POINT('',(27.5,-14.5,0.));
#694=CARTESIAN_POINT('',(27.5,-14.5,-3.75));
#695=CARTESIAN_POINT('',(27.5,0.,-14.5));
#696=CARTESIAN_POINT('',(27.5,0.,-18.25));
#697=CARTESIAN_POINT('',(27.5,14.5,0.));
#698=CARTESIAN_POINT('',(27.5,14.5,-3.75));
#699=CARTESIAN_POINT('',(27.5,14.5,0.));
#700=CARTESIAN_POINT('',(23.4,14.5,0.));
#701=CARTESIAN_POINT('',(23.4,14.5,-2.25));
#702=CARTESIAN_POINT('',(23.4,16.75,0.));
#703=CARTESIAN_POINT('',(23.4,14.5,0.));
#704=CARTESIAN_POINT('',(23.4,14.5,-3.75));
#705=CARTESIAN_POINT('',(27.5,14.5,0.));
#706=CARTESIAN_POINT('',(27.5,0.,-14.5));
#707=CARTESIAN_POINT('',(23.4,0.,-14.5));
#708=CARTESIAN_POINT('',(23.4,0.,-16.75));
#709=CARTESIAN_POINT('',(23.4,2.25,-14.5));
#710=CARTESIAN_POINT('',(23.4,0.,-14.5));
#711=CARTESIAN_POINT('',(23.4,0.,-18.25));
#712=CARTESIAN_POINT('',(27.5,0.,-14.5));
#713=CARTESIAN_POINT('',(27.5,-14.5,0.));
#714=CARTESIAN_POINT('',(23.4,-14.5,0.));
#715=CARTESIAN_POINT('',(23.4,-14.5,-2.25));
#716=CARTESIAN_POINT('',(23.4,-12.25,0.));
#717=CARTESIAN_POINT('',(23.4,-14.5,0.));
#718=CARTESIAN_POINT('',(23.4,-14.5,-3.75));
#719=CARTESIAN_POINT('',(27.5,-14.5,0.));
#720=CARTESIAN_POINT('',(27.5,0.,14.5));
#721=CARTESIAN_POINT('',(23.4,0.,14.5));
#722=CARTESIAN_POINT('',(23.4,0.,12.25));
#723=CARTESIAN_POINT('',(23.4,2.25,14.5));
#724=CARTESIAN_POINT('',(23.4,0.,14.5));
#725=CARTESIAN_POINT('',(23.4,0.,10.75));
#726=CARTESIAN_POINT('',(27.5,0.,14.5));
#727=CARTESIAN_POINT('',(31.8,5.6,0.));
#728=CARTESIAN_POINT('',(31.8,0.,0.));
#729=CARTESIAN_POINT('',(31.8,0.,-5.29999999999999));
#730=CARTESIAN_POINT('',(31.8,0.,0.));
#731=CARTESIAN_POINT('',(31.8,0.,-5.6));
#732=CARTESIAN_POINT('',(500.,0.,0.));
#733=CARTESIAN_POINT('',(500.,0.,0.));
#734=CARTESIAN_POINT('',(31.45,0.,0.));
#735=CARTESIAN_POINT('',(31.45,0.,-5.6));
#736=CARTESIAN_POINT('',(31.45,5.,0.));
#737=CARTESIAN_POINT('',(31.45,0.,0.));
#738=CARTESIAN_POINT('',(31.45,0.,-5.));
#739=CARTESIAN_POINT('',(500.,0.,0.));
#740=CARTESIAN_POINT('',(-31.45,0.,0.));
#741=CARTESIAN_POINT('',(-31.45,0.,-5.));
#742=CARTESIAN_POINT('',(500.,0.,0.));
#743=CARTESIAN_POINT('',(-31.8000000000001,0.,0.));
#744=CARTESIAN_POINT('',(-31.8000000000001,0.,-5.3));
#745=CARTESIAN_POINT('',(-31.8,5.3,0.));
#746=CARTESIAN_POINT('',(-31.8000000000001,0.,0.));
#747=CARTESIAN_POINT('',(-31.8000000000001,0.,-5.6));
#748=CARTESIAN_POINT('',(500.,0.,0.));
#749=CARTESIAN_POINT('',(-31.45,0.,0.));
#750=CARTESIAN_POINT('',(-31.45,0.,-5.6));
#751=CARTESIAN_POINT('',(-31.45,5.6,0.));
#752=MECHANICAL_DESIGN_GEOMETRIC_PRESENTATION_REPRESENTATION('',(#420),
#753);
#753=(
GEOMETRIC_REPRESENTATION_CONTEXT(3)
GLOBAL_UNCERTAINTY_ASSIGNED_CONTEXT((#754))
GLOBAL_UNIT_ASSIGNED_CONTEXT((#757,#756,#755))
REPRESENTATION_CONTEXT('LMF10LUU-MX','TOP_LEVEL_ASSEMBLY_PART')
);
#754=UNCERTAINTY_MEASURE_WITH_UNIT(LENGTH_MEASURE(0.005),#757,
'DISTANCE_ACCURACY_VALUE','Maximum Tolerance applied to model');
#755=(
NAMED_UNIT(*)
SI_UNIT($,.STERADIAN.)
SOLID_ANGLE_UNIT()
);
#756=(
NAMED_UNIT(*)
PLANE_ANGLE_UNIT()
SI_UNIT($,.RADIAN.)
);
#757=(
LENGTH_UNIT()
NAMED_UNIT(*)
SI_UNIT(.MILLI.,.METRE.)
);
#758=PRODUCT_DEFINITION_SHAPE('','',#759);
#759=PRODUCT_DEFINITION('','',#761,#760);
#760=DESIGN_CONTEXT('',#767,'design');
#761=PRODUCT_DEFINITION_FORMATION_WITH_SPECIFIED_SOURCE('','',#763,
 .NOT_KNOWN.);
#762=PRODUCT_RELATED_PRODUCT_CATEGORY('','',(#763));
#763=PRODUCT('LMF10LUU-MX','LMF10LUU-MX','LMF10LUU-MX',(#765));
#764=PRODUCT_CATEGORY('','');
#765=MECHANICAL_CONTEXT('',#767,'mechanical');
#766=APPLICATION_PROTOCOL_DEFINITION('international standard',
'config_control_design',2010,#767);
#767=APPLICATION_CONTEXT(
'configuration controlled 3D designs of mechanical parts and assemblie
s');
ENDSEC;
END-ISO-10303-21;
