ISO-10303-21;
HEADER;
/* Generated by software containing ST-Developer
 * from STEP Tools, Inc. (www.steptools.com) 
 */
/* OPTION: using custom renumber hook */

FILE_DESCRIPTION(
/* description */ ('STEP AP203'),
/* implementation_level */ '2;1');

FILE_NAME(
/* name */ 'LMFP10LUU-MX',
/* time_stamp */ '2022-08-25T03:40:30+02:00',
/* author */ ('License CC BY-ND 4.0'),
/* organization */ ('CADENAS'),
/* preprocessor_version */ 'ST-DEVELOPER v18.102',
/* originating_system */ 'PARTsolutions',
/* authorisation */ '  ');

FILE_SCHEMA (('CONFIG_CONTROL_DESIGN'));
ENDSEC;

DATA;
#10=PROPERTY_DEFINITION_REPRESENTATION(#14,#12);
#11=PROPERTY_DEFINITION_REPRESENTATION(#15,#13);
#12=REPRESENTATION('',(#16),#793);
#13=REPRESENTATION('',(#17),#793);
#14=PROPERTY_DEFINITION('pmi validation property','',#798);
#15=PROPERTY_DEFINITION('pmi validation property','',#798);
#16=VALUE_REPRESENTATION_ITEM('number of annotations',COUNT_MEASURE(0.));
#17=VALUE_REPRESENTATION_ITEM('number of views',COUNT_MEASURE(0.));
#18=SHAPE_REPRESENTATION_RELATIONSHIP('','',#452,#19);
#19=ADVANCED_BREP_SHAPE_REPRESENTATION('',(#450),#793);
#20=CYLINDRICAL_SURFACE('',#464,9.5);
#21=CYLINDRICAL_SURFACE('',#470,9.5);
#22=CYLINDRICAL_SURFACE('',#480,20.);
#23=CYLINDRICAL_SURFACE('',#490,9.5);
#24=CYLINDRICAL_SURFACE('',#491,2.25);
#25=CYLINDRICAL_SURFACE('',#495,3.75);
#26=CYLINDRICAL_SURFACE('',#496,2.25);
#27=CYLINDRICAL_SURFACE('',#500,3.75);
#28=CYLINDRICAL_SURFACE('',#501,2.25);
#29=CYLINDRICAL_SURFACE('',#505,3.75);
#30=CYLINDRICAL_SURFACE('',#506,2.25);
#31=CYLINDRICAL_SURFACE('',#510,3.75);
#32=CYLINDRICAL_SURFACE('',#514,5.29999999999999);
#33=CYLINDRICAL_SURFACE('',#515,5.6);
#34=CYLINDRICAL_SURFACE('',#519,5.);
#35=CYLINDRICAL_SURFACE('',#521,5.3);
#36=CYLINDRICAL_SURFACE('',#525,5.6);
#37=PLANE('',#457);
#38=PLANE('',#459);
#39=PLANE('',#466);
#40=PLANE('',#472);
#41=PLANE('',#484);
#42=PLANE('',#493);
#43=PLANE('',#498);
#44=PLANE('',#503);
#45=PLANE('',#508);
#46=PLANE('',#511);
#47=PLANE('',#517);
#48=PLANE('',#523);
#49=PLANE('',#527);
#50=ORIENTED_EDGE('',*,*,#128,.T.);
#51=ORIENTED_EDGE('',*,*,#129,.F.);
#52=ORIENTED_EDGE('',*,*,#130,.T.);
#53=ORIENTED_EDGE('',*,*,#128,.F.);
#54=ORIENTED_EDGE('',*,*,#131,.T.);
#55=ORIENTED_EDGE('',*,*,#132,.F.);
#56=ORIENTED_EDGE('',*,*,#133,.T.);
#57=ORIENTED_EDGE('',*,*,#131,.F.);
#58=ORIENTED_EDGE('',*,*,#134,.T.);
#59=ORIENTED_EDGE('',*,*,#133,.F.);
#60=ORIENTED_EDGE('',*,*,#135,.T.);
#61=ORIENTED_EDGE('',*,*,#134,.F.);
#62=ORIENTED_EDGE('',*,*,#136,.T.);
#63=ORIENTED_EDGE('',*,*,#135,.F.);
#64=ORIENTED_EDGE('',*,*,#137,.T.);
#65=ORIENTED_EDGE('',*,*,#136,.F.);
#66=ORIENTED_EDGE('',*,*,#138,.T.);
#67=ORIENTED_EDGE('',*,*,#139,.T.);
#68=ORIENTED_EDGE('',*,*,#140,.F.);
#69=ORIENTED_EDGE('',*,*,#141,.F.);
#70=ORIENTED_EDGE('',*,*,#142,.F.);
#71=ORIENTED_EDGE('',*,*,#137,.F.);
#72=ORIENTED_EDGE('',*,*,#143,.T.);
#73=ORIENTED_EDGE('',*,*,#138,.F.);
#74=ORIENTED_EDGE('',*,*,#144,.T.);
#75=ORIENTED_EDGE('',*,*,#143,.F.);
#76=ORIENTED_EDGE('',*,*,#145,.T.);
#77=ORIENTED_EDGE('',*,*,#144,.F.);
#78=ORIENTED_EDGE('',*,*,#146,.T.);
#79=ORIENTED_EDGE('',*,*,#147,.T.);
#80=ORIENTED_EDGE('',*,*,#148,.T.);
#81=ORIENTED_EDGE('',*,*,#149,.T.);
#82=ORIENTED_EDGE('',*,*,#150,.T.);
#83=ORIENTED_EDGE('',*,*,#145,.F.);
#84=ORIENTED_EDGE('',*,*,#129,.T.);
#85=ORIENTED_EDGE('',*,*,#146,.F.);
#86=ORIENTED_EDGE('',*,*,#151,.T.);
#87=ORIENTED_EDGE('',*,*,#147,.F.);
#88=ORIENTED_EDGE('',*,*,#152,.T.);
#89=ORIENTED_EDGE('',*,*,#151,.F.);
#90=ORIENTED_EDGE('',*,*,#139,.F.);
#91=ORIENTED_EDGE('',*,*,#152,.F.);
#92=ORIENTED_EDGE('',*,*,#153,.T.);
#93=ORIENTED_EDGE('',*,*,#150,.F.);
#94=ORIENTED_EDGE('',*,*,#154,.T.);
#95=ORIENTED_EDGE('',*,*,#153,.F.);
#96=ORIENTED_EDGE('',*,*,#142,.T.);
#97=ORIENTED_EDGE('',*,*,#154,.F.);
#98=ORIENTED_EDGE('',*,*,#155,.T.);
#99=ORIENTED_EDGE('',*,*,#149,.F.);
#100=ORIENTED_EDGE('',*,*,#156,.T.);
#101=ORIENTED_EDGE('',*,*,#155,.F.);
#102=ORIENTED_EDGE('',*,*,#141,.T.);
#103=ORIENTED_EDGE('',*,*,#156,.F.);
#104=ORIENTED_EDGE('',*,*,#157,.T.);
#105=ORIENTED_EDGE('',*,*,#148,.F.);
#106=ORIENTED_EDGE('',*,*,#158,.T.);
#107=ORIENTED_EDGE('',*,*,#157,.F.);
#108=ORIENTED_EDGE('',*,*,#140,.T.);
#109=ORIENTED_EDGE('',*,*,#158,.F.);
#110=ORIENTED_EDGE('',*,*,#159,.T.);
#111=ORIENTED_EDGE('',*,*,#160,.F.);
#112=ORIENTED_EDGE('',*,*,#132,.T.);
#113=ORIENTED_EDGE('',*,*,#159,.F.);
#114=ORIENTED_EDGE('',*,*,#160,.T.);
#115=ORIENTED_EDGE('',*,*,#161,.F.);
#116=ORIENTED_EDGE('',*,*,#161,.T.);
#117=ORIENTED_EDGE('',*,*,#162,.F.);
#118=ORIENTED_EDGE('',*,*,#162,.T.);
#119=ORIENTED_EDGE('',*,*,#163,.F.);
#120=ORIENTED_EDGE('',*,*,#164,.T.);
#121=ORIENTED_EDGE('',*,*,#130,.F.);
#122=ORIENTED_EDGE('',*,*,#165,.T.);
#123=ORIENTED_EDGE('',*,*,#164,.F.);
#124=ORIENTED_EDGE('',*,*,#166,.T.);
#125=ORIENTED_EDGE('',*,*,#165,.F.);
#126=ORIENTED_EDGE('',*,*,#163,.T.);
#127=ORIENTED_EDGE('',*,*,#166,.F.);
#128=EDGE_CURVE('',#167,#167,#206,.T.);
#129=EDGE_CURVE('',#168,#168,#207,.T.);
#130=EDGE_CURVE('',#169,#169,#208,.T.);
#131=EDGE_CURVE('',#170,#170,#209,.T.);
#132=EDGE_CURVE('',#171,#171,#210,.T.);
#133=EDGE_CURVE('',#172,#172,#211,.T.);
#134=EDGE_CURVE('',#173,#173,#212,.T.);
#135=EDGE_CURVE('',#174,#174,#213,.T.);
#136=EDGE_CURVE('',#175,#175,#214,.T.);
#137=EDGE_CURVE('',#176,#176,#215,.T.);
#138=EDGE_CURVE('',#177,#177,#216,.T.);
#139=EDGE_CURVE('',#178,#178,#217,.F.);
#140=EDGE_CURVE('',#179,#179,#218,.T.);
#141=EDGE_CURVE('',#180,#180,#219,.T.);
#142=EDGE_CURVE('',#181,#181,#220,.T.);
#143=EDGE_CURVE('',#182,#182,#221,.T.);
#144=EDGE_CURVE('',#183,#183,#222,.T.);
#145=EDGE_CURVE('',#184,#184,#223,.T.);
#146=EDGE_CURVE('',#185,#185,#224,.T.);
#147=EDGE_CURVE('',#186,#186,#225,.F.);
#148=EDGE_CURVE('',#187,#187,#226,.T.);
#149=EDGE_CURVE('',#188,#188,#227,.T.);
#150=EDGE_CURVE('',#189,#189,#228,.T.);
#151=EDGE_CURVE('',#190,#190,#229,.T.);
#152=EDGE_CURVE('',#191,#191,#230,.T.);
#153=EDGE_CURVE('',#192,#192,#231,.T.);
#154=EDGE_CURVE('',#193,#193,#232,.T.);
#155=EDGE_CURVE('',#194,#194,#233,.T.);
#156=EDGE_CURVE('',#195,#195,#234,.T.);
#157=EDGE_CURVE('',#196,#196,#235,.T.);
#158=EDGE_CURVE('',#197,#197,#236,.T.);
#159=EDGE_CURVE('',#198,#198,#237,.T.);
#160=EDGE_CURVE('',#199,#199,#238,.T.);
#161=EDGE_CURVE('',#200,#200,#239,.T.);
#162=EDGE_CURVE('',#201,#201,#240,.T.);
#163=EDGE_CURVE('',#202,#202,#241,.T.);
#164=EDGE_CURVE('',#203,#203,#242,.T.);
#165=EDGE_CURVE('',#204,#204,#243,.T.);
#166=EDGE_CURVE('',#205,#205,#244,.T.);
#167=VERTEX_POINT('',#681);
#168=VERTEX_POINT('',#683);
#169=VERTEX_POINT('',#686);
#170=VERTEX_POINT('',#689);
#171=VERTEX_POINT('',#691);
#172=VERTEX_POINT('',#694);
#173=VERTEX_POINT('',#697);
#174=VERTEX_POINT('',#700);
#175=VERTEX_POINT('',#703);
#176=VERTEX_POINT('',#706);
#177=VERTEX_POINT('',#709);
#178=VERTEX_POINT('',#711);
#179=VERTEX_POINT('',#713);
#180=VERTEX_POINT('',#715);
#181=VERTEX_POINT('',#717);
#182=VERTEX_POINT('',#720);
#183=VERTEX_POINT('',#723);
#184=VERTEX_POINT('',#726);
#185=VERTEX_POINT('',#729);
#186=VERTEX_POINT('',#731);
#187=VERTEX_POINT('',#733);
#188=VERTEX_POINT('',#735);
#189=VERTEX_POINT('',#737);
#190=VERTEX_POINT('',#741);
#191=VERTEX_POINT('',#744);
#192=VERTEX_POINT('',#748);
#193=VERTEX_POINT('',#751);
#194=VERTEX_POINT('',#755);
#195=VERTEX_POINT('',#758);
#196=VERTEX_POINT('',#762);
#197=VERTEX_POINT('',#765);
#198=VERTEX_POINT('',#769);
#199=VERTEX_POINT('',#771);
#200=VERTEX_POINT('',#775);
#201=VERTEX_POINT('',#778);
#202=VERTEX_POINT('',#781);
#203=VERTEX_POINT('',#784);
#204=VERTEX_POINT('',#787);
#205=VERTEX_POINT('',#790);
#206=CIRCLE('',#455,8.90000000000003);
#207=CIRCLE('',#456,9.5);
#208=CIRCLE('',#458,5.3);
#209=CIRCLE('',#460,8.9);
#210=CIRCLE('',#461,5.29999999999999);
#211=CIRCLE('',#463,9.5);
#212=CIRCLE('',#465,9.5);
#213=CIRCLE('',#467,9.2);
#214=CIRCLE('',#469,9.5);
#215=CIRCLE('',#471,9.5);
#216=CIRCLE('',#473,19.7);
#217=CIRCLE('',#474,3.75);
#218=CIRCLE('',#475,3.75);
#219=CIRCLE('',#476,3.75);
#220=CIRCLE('',#477,3.75);
#221=CIRCLE('',#479,20.);
#222=CIRCLE('',#481,20.);
#223=CIRCLE('',#483,19.7);
#224=CIRCLE('',#485,9.5);
#225=CIRCLE('',#486,2.25);
#226=CIRCLE('',#487,2.25);
#227=CIRCLE('',#488,2.25);
#228=CIRCLE('',#489,2.25);
#229=CIRCLE('',#492,2.25);
#230=CIRCLE('',#494,3.75);
#231=CIRCLE('',#497,2.25);
#232=CIRCLE('',#499,3.75);
#233=CIRCLE('',#502,2.25);
#234=CIRCLE('',#504,3.75);
#235=CIRCLE('',#507,2.25);
#236=CIRCLE('',#509,3.75);
#237=CIRCLE('',#512,5.29999999999999);
#238=CIRCLE('',#513,5.6);
#239=CIRCLE('',#516,5.6);
#240=CIRCLE('',#518,5.);
#241=CIRCLE('',#520,5.);
#242=CIRCLE('',#522,5.3);
#243=CIRCLE('',#524,5.6);
#244=CIRCLE('',#526,5.6);
#245=EDGE_LOOP('',(#50));
#246=EDGE_LOOP('',(#51));
#247=EDGE_LOOP('',(#52));
#248=EDGE_LOOP('',(#53));
#249=EDGE_LOOP('',(#54));
#250=EDGE_LOOP('',(#55));
#251=EDGE_LOOP('',(#56));
#252=EDGE_LOOP('',(#57));
#253=EDGE_LOOP('',(#58));
#254=EDGE_LOOP('',(#59));
#255=EDGE_LOOP('',(#60));
#256=EDGE_LOOP('',(#61));
#257=EDGE_LOOP('',(#62));
#258=EDGE_LOOP('',(#63));
#259=EDGE_LOOP('',(#64));
#260=EDGE_LOOP('',(#65));
#261=EDGE_LOOP('',(#66));
#262=EDGE_LOOP('',(#67));
#263=EDGE_LOOP('',(#68));
#264=EDGE_LOOP('',(#69));
#265=EDGE_LOOP('',(#70));
#266=EDGE_LOOP('',(#71));
#267=EDGE_LOOP('',(#72));
#268=EDGE_LOOP('',(#73));
#269=EDGE_LOOP('',(#74));
#270=EDGE_LOOP('',(#75));
#271=EDGE_LOOP('',(#76));
#272=EDGE_LOOP('',(#77));
#273=EDGE_LOOP('',(#78));
#274=EDGE_LOOP('',(#79));
#275=EDGE_LOOP('',(#80));
#276=EDGE_LOOP('',(#81));
#277=EDGE_LOOP('',(#82));
#278=EDGE_LOOP('',(#83));
#279=EDGE_LOOP('',(#84));
#280=EDGE_LOOP('',(#85));
#281=EDGE_LOOP('',(#86));
#282=EDGE_LOOP('',(#87));
#283=EDGE_LOOP('',(#88));
#284=EDGE_LOOP('',(#89));
#285=EDGE_LOOP('',(#90));
#286=EDGE_LOOP('',(#91));
#287=EDGE_LOOP('',(#92));
#288=EDGE_LOOP('',(#93));
#289=EDGE_LOOP('',(#94));
#290=EDGE_LOOP('',(#95));
#291=EDGE_LOOP('',(#96));
#292=EDGE_LOOP('',(#97));
#293=EDGE_LOOP('',(#98));
#294=EDGE_LOOP('',(#99));
#295=EDGE_LOOP('',(#100));
#296=EDGE_LOOP('',(#101));
#297=EDGE_LOOP('',(#102));
#298=EDGE_LOOP('',(#103));
#299=EDGE_LOOP('',(#104));
#300=EDGE_LOOP('',(#105));
#301=EDGE_LOOP('',(#106));
#302=EDGE_LOOP('',(#107));
#303=EDGE_LOOP('',(#108));
#304=EDGE_LOOP('',(#109));
#305=EDGE_LOOP('',(#110));
#306=EDGE_LOOP('',(#111));
#307=EDGE_LOOP('',(#112));
#308=EDGE_LOOP('',(#113));
#309=EDGE_LOOP('',(#114));
#310=EDGE_LOOP('',(#115));
#311=EDGE_LOOP('',(#116));
#312=EDGE_LOOP('',(#117));
#313=EDGE_LOOP('',(#118));
#314=EDGE_LOOP('',(#119));
#315=EDGE_LOOP('',(#120));
#316=EDGE_LOOP('',(#121));
#317=EDGE_LOOP('',(#122));
#318=EDGE_LOOP('',(#123));
#319=EDGE_LOOP('',(#124));
#320=EDGE_LOOP('',(#125));
#321=EDGE_LOOP('',(#126));
#322=EDGE_LOOP('',(#127));
#323=FACE_BOUND('',#245,.T.);
#324=FACE_BOUND('',#246,.T.);
#325=FACE_BOUND('',#247,.T.);
#326=FACE_BOUND('',#248,.T.);
#327=FACE_BOUND('',#249,.T.);
#328=FACE_BOUND('',#250,.T.);
#329=FACE_BOUND('',#251,.T.);
#330=FACE_BOUND('',#252,.T.);
#331=FACE_BOUND('',#253,.T.);
#332=FACE_BOUND('',#254,.T.);
#333=FACE_BOUND('',#255,.T.);
#334=FACE_BOUND('',#256,.T.);
#335=FACE_BOUND('',#257,.T.);
#336=FACE_BOUND('',#258,.T.);
#337=FACE_BOUND('',#259,.T.);
#338=FACE_BOUND('',#260,.T.);
#339=FACE_BOUND('',#261,.T.);
#340=FACE_BOUND('',#262,.T.);
#341=FACE_BOUND('',#263,.T.);
#342=FACE_BOUND('',#264,.T.);
#343=FACE_BOUND('',#265,.T.);
#344=FACE_BOUND('',#266,.T.);
#345=FACE_BOUND('',#267,.T.);
#346=FACE_BOUND('',#268,.T.);
#347=FACE_BOUND('',#269,.T.);
#348=FACE_BOUND('',#270,.T.);
#349=FACE_BOUND('',#271,.T.);
#350=FACE_BOUND('',#272,.T.);
#351=FACE_BOUND('',#273,.T.);
#352=FACE_BOUND('',#274,.T.);
#353=FACE_BOUND('',#275,.T.);
#354=FACE_BOUND('',#276,.T.);
#355=FACE_BOUND('',#277,.T.);
#356=FACE_BOUND('',#278,.T.);
#357=FACE_BOUND('',#279,.T.);
#358=FACE_BOUND('',#280,.T.);
#359=FACE_BOUND('',#281,.T.);
#360=FACE_BOUND('',#282,.T.);
#361=FACE_BOUND('',#283,.T.);
#362=FACE_BOUND('',#284,.T.);
#363=FACE_BOUND('',#285,.T.);
#364=FACE_BOUND('',#286,.T.);
#365=FACE_BOUND('',#287,.T.);
#366=FACE_BOUND('',#288,.T.);
#367=FACE_BOUND('',#289,.T.);
#368=FACE_BOUND('',#290,.T.);
#369=FACE_BOUND('',#291,.T.);
#370=FACE_BOUND('',#292,.T.);
#371=FACE_BOUND('',#293,.T.);
#372=FACE_BOUND('',#294,.T.);
#373=FACE_BOUND('',#295,.T.);
#374=FACE_BOUND('',#296,.T.);
#375=FACE_BOUND('',#297,.T.);
#376=FACE_BOUND('',#298,.T.);
#377=FACE_BOUND('',#299,.T.);
#378=FACE_BOUND('',#300,.T.);
#379=FACE_BOUND('',#301,.T.);
#380=FACE_BOUND('',#302,.T.);
#381=FACE_BOUND('',#303,.T.);
#382=FACE_BOUND('',#304,.T.);
#383=FACE_BOUND('',#305,.T.);
#384=FACE_BOUND('',#306,.T.);
#385=FACE_BOUND('',#307,.T.);
#386=FACE_BOUND('',#308,.T.);
#387=FACE_BOUND('',#309,.T.);
#388=FACE_BOUND('',#310,.T.);
#389=FACE_BOUND('',#311,.T.);
#390=FACE_BOUND('',#312,.T.);
#391=FACE_BOUND('',#313,.T.);
#392=FACE_BOUND('',#314,.T.);
#393=FACE_BOUND('',#315,.T.);
#394=FACE_BOUND('',#316,.T.);
#395=FACE_BOUND('',#317,.T.);
#396=FACE_BOUND('',#318,.T.);
#397=FACE_BOUND('',#319,.T.);
#398=FACE_BOUND('',#320,.T.);
#399=FACE_BOUND('',#321,.T.);
#400=FACE_BOUND('',#322,.T.);
#401=TOROIDAL_SURFACE('',#454,8.90000000000002,0.599999999999984);
#402=TOROIDAL_SURFACE('',#462,8.90000000000001,0.599999999999989);
#403=TOROIDAL_SURFACE('',#468,9.2,0.300000000000005);
#404=TOROIDAL_SURFACE('',#478,19.7,0.299999999999991);
#405=TOROIDAL_SURFACE('',#482,19.7,0.300000000000002);
#406=ADVANCED_FACE('',(#323,#324),#401,.T.);
#407=ADVANCED_FACE('',(#325,#326),#37,.T.);
#408=ADVANCED_FACE('',(#327,#328),#38,.T.);
#409=ADVANCED_FACE('',(#329,#330),#402,.T.);
#410=ADVANCED_FACE('',(#331,#332),#20,.T.);
#411=ADVANCED_FACE('',(#333,#334),#39,.T.);
#412=ADVANCED_FACE('',(#335,#336),#403,.T.);
#413=ADVANCED_FACE('',(#337,#338),#21,.T.);
#414=ADVANCED_FACE('',(#339,#340,#341,#342,#343,#344),#40,.T.);
#415=ADVANCED_FACE('',(#345,#346),#404,.T.);
#416=ADVANCED_FACE('',(#347,#348),#22,.T.);
#417=ADVANCED_FACE('',(#349,#350),#405,.T.);
#418=ADVANCED_FACE('',(#351,#352,#353,#354,#355,#356),#41,.T.);
#419=ADVANCED_FACE('',(#357,#358),#23,.T.);
#420=ADVANCED_FACE('',(#359,#360),#24,.F.);
#421=ADVANCED_FACE('',(#361,#362),#42,.T.);
#422=ADVANCED_FACE('',(#363,#364),#25,.F.);
#423=ADVANCED_FACE('',(#365,#366),#26,.F.);
#424=ADVANCED_FACE('',(#367,#368),#43,.T.);
#425=ADVANCED_FACE('',(#369,#370),#27,.F.);
#426=ADVANCED_FACE('',(#371,#372),#28,.F.);
#427=ADVANCED_FACE('',(#373,#374),#44,.T.);
#428=ADVANCED_FACE('',(#375,#376),#29,.F.);
#429=ADVANCED_FACE('',(#377,#378),#30,.F.);
#430=ADVANCED_FACE('',(#379,#380),#45,.T.);
#431=ADVANCED_FACE('',(#381,#382),#31,.F.);
#432=ADVANCED_FACE('',(#383,#384),#46,.T.);
#433=ADVANCED_FACE('',(#385,#386),#32,.F.);
#434=ADVANCED_FACE('',(#387,#388),#33,.F.);
#435=ADVANCED_FACE('',(#389,#390),#47,.T.);
#436=ADVANCED_FACE('',(#391,#392),#34,.F.);
#437=ADVANCED_FACE('',(#393,#394),#35,.F.);
#438=ADVANCED_FACE('',(#395,#396),#48,.T.);
#439=ADVANCED_FACE('',(#397,#398),#36,.F.);
#440=ADVANCED_FACE('',(#399,#400),#49,.T.);
#441=CLOSED_SHELL('',(#406,#407,#408,#409,#410,#411,#412,#413,#414,#415,
#416,#417,#418,#419,#420,#421,#422,#423,#424,#425,#426,#427,#428,#429,#430,
#431,#432,#433,#434,#435,#436,#437,#438,#439,#440));
#442=STYLED_ITEM('',(#443),#450);
#443=PRESENTATION_STYLE_ASSIGNMENT((#444));
#444=SURFACE_STYLE_USAGE(.BOTH.,#445);
#445=SURFACE_SIDE_STYLE('',(#446));
#446=SURFACE_STYLE_FILL_AREA(#447);
#447=FILL_AREA_STYLE('',(#448));
#448=FILL_AREA_STYLE_COLOUR('',#449);
#449=COLOUR_RGB('',0.689999997615814,0.689999997615814,0.689999997615814);
#450=MANIFOLD_SOLID_BREP('LMFP10LUU-MX',#441);
#451=SHAPE_DEFINITION_REPRESENTATION(#798,#452);
#452=SHAPE_REPRESENTATION('LMFP10LUU-MX',(#453),#793);
#453=AXIS2_PLACEMENT_3D('',#678,#528,#529);
#454=AXIS2_PLACEMENT_3D('',#679,#530,#531);
#455=AXIS2_PLACEMENT_3D('',#680,#532,#533);
#456=AXIS2_PLACEMENT_3D('',#682,#534,#535);
#457=AXIS2_PLACEMENT_3D('',#684,#536,#537);
#458=AXIS2_PLACEMENT_3D('',#685,#538,#539);
#459=AXIS2_PLACEMENT_3D('',#687,#540,#541);
#460=AXIS2_PLACEMENT_3D('',#688,#542,#543);
#461=AXIS2_PLACEMENT_3D('',#690,#544,#545);
#462=AXIS2_PLACEMENT_3D('',#692,#546,#547);
#463=AXIS2_PLACEMENT_3D('',#693,#548,#549);
#464=AXIS2_PLACEMENT_3D('',#695,#550,#551);
#465=AXIS2_PLACEMENT_3D('',#696,#552,#553);
#466=AXIS2_PLACEMENT_3D('',#698,#554,#555);
#467=AXIS2_PLACEMENT_3D('',#699,#556,#557);
#468=AXIS2_PLACEMENT_3D('',#701,#558,#559);
#469=AXIS2_PLACEMENT_3D('',#702,#560,#561);
#470=AXIS2_PLACEMENT_3D('',#704,#562,#563);
#471=AXIS2_PLACEMENT_3D('',#705,#564,#565);
#472=AXIS2_PLACEMENT_3D('',#707,#566,#567);
#473=AXIS2_PLACEMENT_3D('',#708,#568,#569);
#474=AXIS2_PLACEMENT_3D('',#710,#570,#571);
#475=AXIS2_PLACEMENT_3D('',#712,#572,#573);
#476=AXIS2_PLACEMENT_3D('',#714,#574,#575);
#477=AXIS2_PLACEMENT_3D('',#716,#576,#577);
#478=AXIS2_PLACEMENT_3D('',#718,#578,#579);
#479=AXIS2_PLACEMENT_3D('',#719,#580,#581);
#480=AXIS2_PLACEMENT_3D('',#721,#582,#583);
#481=AXIS2_PLACEMENT_3D('',#722,#584,#585);
#482=AXIS2_PLACEMENT_3D('',#724,#586,#587);
#483=AXIS2_PLACEMENT_3D('',#725,#588,#589);
#484=AXIS2_PLACEMENT_3D('',#727,#590,#591);
#485=AXIS2_PLACEMENT_3D('',#728,#592,#593);
#486=AXIS2_PLACEMENT_3D('',#730,#594,#595);
#487=AXIS2_PLACEMENT_3D('',#732,#596,#597);
#488=AXIS2_PLACEMENT_3D('',#734,#598,#599);
#489=AXIS2_PLACEMENT_3D('',#736,#600,#601);
#490=AXIS2_PLACEMENT_3D('',#738,#602,#603);
#491=AXIS2_PLACEMENT_3D('',#739,#604,#605);
#492=AXIS2_PLACEMENT_3D('',#740,#606,#607);
#493=AXIS2_PLACEMENT_3D('',#742,#608,#609);
#494=AXIS2_PLACEMENT_3D('',#743,#610,#611);
#495=AXIS2_PLACEMENT_3D('',#745,#612,#613);
#496=AXIS2_PLACEMENT_3D('',#746,#614,#615);
#497=AXIS2_PLACEMENT_3D('',#747,#616,#617);
#498=AXIS2_PLACEMENT_3D('',#749,#618,#619);
#499=AXIS2_PLACEMENT_3D('',#750,#620,#621);
#500=AXIS2_PLACEMENT_3D('',#752,#622,#623);
#501=AXIS2_PLACEMENT_3D('',#753,#624,#625);
#502=AXIS2_PLACEMENT_3D('',#754,#626,#627);
#503=AXIS2_PLACEMENT_3D('',#756,#628,#629);
#504=AXIS2_PLACEMENT_3D('',#757,#630,#631);
#505=AXIS2_PLACEMENT_3D('',#759,#632,#633);
#506=AXIS2_PLACEMENT_3D('',#760,#634,#635);
#507=AXIS2_PLACEMENT_3D('',#761,#636,#637);
#508=AXIS2_PLACEMENT_3D('',#763,#638,#639);
#509=AXIS2_PLACEMENT_3D('',#764,#640,#641);
#510=AXIS2_PLACEMENT_3D('',#766,#642,#643);
#511=AXIS2_PLACEMENT_3D('',#767,#644,#645);
#512=AXIS2_PLACEMENT_3D('',#768,#646,#647);
#513=AXIS2_PLACEMENT_3D('',#770,#648,#649);
#514=AXIS2_PLACEMENT_3D('',#772,#650,#651);
#515=AXIS2_PLACEMENT_3D('',#773,#652,#653);
#516=AXIS2_PLACEMENT_3D('',#774,#654,#655);
#517=AXIS2_PLACEMENT_3D('',#776,#656,#657);
#518=AXIS2_PLACEMENT_3D('',#777,#658,#659);
#519=AXIS2_PLACEMENT_3D('',#779,#660,#661);
#520=AXIS2_PLACEMENT_3D('',#780,#662,#663);
#521=AXIS2_PLACEMENT_3D('',#782,#664,#665);
#522=AXIS2_PLACEMENT_3D('',#783,#666,#667);
#523=AXIS2_PLACEMENT_3D('',#785,#668,#669);
#524=AXIS2_PLACEMENT_3D('',#786,#670,#671);
#525=AXIS2_PLACEMENT_3D('',#788,#672,#673);
#526=AXIS2_PLACEMENT_3D('',#789,#674,#675);
#527=AXIS2_PLACEMENT_3D('',#791,#676,#677);
#528=DIRECTION('',(0.,0.,1.));
#529=DIRECTION('',(1.,0.,0.));
#530=DIRECTION('',(1.,0.,0.));
#531=DIRECTION('',(0.,0.,-1.));
#532=DIRECTION('',(1.,0.,0.));
#533=DIRECTION('',(0.,0.,-1.));
#534=DIRECTION('',(1.,0.,0.));
#535=DIRECTION('',(0.,0.,-1.));
#536=DIRECTION('',(-1.,0.,0.));
#537=DIRECTION('',(0.,0.,1.));
#538=DIRECTION('',(1.,0.,0.));
#539=DIRECTION('',(0.,0.,-1.));
#540=DIRECTION('',(1.,0.,0.));
#541=DIRECTION('',(0.,0.,-1.));
#542=DIRECTION('',(1.,0.,0.));
#543=DIRECTION('',(0.,0.,-1.));
#544=DIRECTION('',(1.,0.,0.));
#545=DIRECTION('',(0.,0.,-1.));
#546=DIRECTION('',(1.,0.,0.));
#547=DIRECTION('',(0.,0.,-1.));
#548=DIRECTION('',(1.,0.,0.));
#549=DIRECTION('',(0.,0.,-1.));
#550=DIRECTION('',(1.,0.,0.));
#551=DIRECTION('',(0.,0.,-1.));
#552=DIRECTION('',(1.,0.,0.));
#553=DIRECTION('',(0.,0.,-1.));
#554=DIRECTION('',(-1.,0.,0.));
#555=DIRECTION('',(0.,0.,1.));
#556=DIRECTION('',(1.,0.,0.));
#557=DIRECTION('',(0.,0.,-1.));
#558=DIRECTION('',(1.,0.,0.));
#559=DIRECTION('',(0.,0.,-1.));
#560=DIRECTION('',(1.,0.,0.));
#561=DIRECTION('',(0.,0.,-1.));
#562=DIRECTION('',(1.,0.,0.));
#563=DIRECTION('',(0.,0.,-1.));
#564=DIRECTION('',(1.,0.,0.));
#565=DIRECTION('',(0.,0.,-1.));
#566=DIRECTION('',(1.,0.,0.));
#567=DIRECTION('',(0.,0.,-1.));
#568=DIRECTION('',(1.,0.,0.));
#569=DIRECTION('',(0.,0.,-1.));
#570=DIRECTION('',(1.,0.,0.));
#571=DIRECTION('',(0.,0.,-1.));
#572=DIRECTION('',(1.,0.,0.));
#573=DIRECTION('',(0.,0.,-1.));
#574=DIRECTION('',(1.,0.,0.));
#575=DIRECTION('',(0.,0.,-1.));
#576=DIRECTION('',(1.,0.,0.));
#577=DIRECTION('',(0.,0.,-1.));
#578=DIRECTION('',(1.,0.,0.));
#579=DIRECTION('',(0.,0.,-1.));
#580=DIRECTION('',(1.,0.,0.));
#581=DIRECTION('',(0.,0.,-1.));
#582=DIRECTION('',(1.,0.,0.));
#583=DIRECTION('',(0.,0.,-1.));
#584=DIRECTION('',(1.,0.,0.));
#585=DIRECTION('',(0.,0.,-1.));
#586=DIRECTION('',(1.,0.,0.));
#587=DIRECTION('',(0.,0.,-1.));
#588=DIRECTION('',(1.,0.,0.));
#589=DIRECTION('',(0.,0.,-1.));
#590=DIRECTION('',(-1.,0.,0.));
#591=DIRECTION('',(0.,0.,1.));
#592=DIRECTION('',(1.,0.,0.));
#593=DIRECTION('',(0.,0.,-1.));
#594=DIRECTION('',(-1.,0.,0.));
#595=DIRECTION('',(0.,0.,1.));
#596=DIRECTION('',(1.,0.,0.));
#597=DIRECTION('',(0.,0.,-1.));
#598=DIRECTION('',(1.,0.,0.));
#599=DIRECTION('',(0.,0.,-1.));
#600=DIRECTION('',(1.,0.,0.));
#601=DIRECTION('',(0.,0.,-1.));
#602=DIRECTION('',(1.,0.,0.));
#603=DIRECTION('',(0.,0.,-1.));
#604=DIRECTION('',(1.,0.,0.));
#605=DIRECTION('',(0.,0.,-1.));
#606=DIRECTION('',(1.,0.,0.));
#607=DIRECTION('',(0.,0.,-1.));
#608=DIRECTION('',(1.,0.,0.));
#609=DIRECTION('',(0.,0.,-1.));
#610=DIRECTION('',(1.,0.,0.));
#611=DIRECTION('',(0.,0.,-1.));
#612=DIRECTION('',(1.,0.,0.));
#613=DIRECTION('',(0.,0.,-1.));
#614=DIRECTION('',(1.,0.,0.));
#615=DIRECTION('',(0.,0.,-1.));
#616=DIRECTION('',(1.,0.,0.));
#617=DIRECTION('',(0.,0.,-1.));
#618=DIRECTION('',(1.,0.,0.));
#619=DIRECTION('',(0.,0.,-1.));
#620=DIRECTION('',(1.,0.,0.));
#621=DIRECTION('',(0.,0.,-1.));
#622=DIRECTION('',(1.,0.,0.));
#623=DIRECTION('',(0.,0.,-1.));
#624=DIRECTION('',(1.,0.,0.));
#625=DIRECTION('',(0.,0.,-1.));
#626=DIRECTION('',(1.,0.,0.));
#627=DIRECTION('',(0.,0.,-1.));
#628=DIRECTION('',(1.,0.,0.));
#629=DIRECTION('',(0.,0.,-1.));
#630=DIRECTION('',(1.,0.,0.));
#631=DIRECTION('',(0.,0.,-1.));
#632=DIRECTION('',(1.,0.,0.));
#633=DIRECTION('',(0.,0.,-1.));
#634=DIRECTION('',(1.,0.,0.));
#635=DIRECTION('',(0.,0.,-1.));
#636=DIRECTION('',(1.,0.,0.));
#637=DIRECTION('',(0.,0.,-1.));
#638=DIRECTION('',(1.,0.,0.));
#639=DIRECTION('',(0.,0.,-1.));
#640=DIRECTION('',(1.,0.,0.));
#641=DIRECTION('',(0.,0.,-1.));
#642=DIRECTION('',(1.,0.,0.));
#643=DIRECTION('',(0.,0.,-1.));
#644=DIRECTION('',(-1.,0.,0.));
#645=DIRECTION('',(0.,0.,1.));
#646=DIRECTION('',(1.,0.,0.));
#647=DIRECTION('',(0.,0.,-1.));
#648=DIRECTION('',(1.,0.,0.));
#649=DIRECTION('',(0.,0.,-1.));
#650=DIRECTION('',(1.,0.,0.));
#651=DIRECTION('',(0.,0.,-1.));
#652=DIRECTION('',(1.,0.,0.));
#653=DIRECTION('',(0.,0.,-1.));
#654=DIRECTION('',(1.,0.,0.));
#655=DIRECTION('',(0.,0.,-1.));
#656=DIRECTION('',(1.,0.,0.));
#657=DIRECTION('',(0.,0.,-1.));
#658=DIRECTION('',(1.,0.,0.));
#659=DIRECTION('',(0.,0.,-1.));
#660=DIRECTION('',(1.,0.,0.));
#661=DIRECTION('',(0.,0.,-1.));
#662=DIRECTION('',(1.,0.,0.));
#663=DIRECTION('',(0.,0.,-1.));
#664=DIRECTION('',(1.,0.,0.));
#665=DIRECTION('',(0.,0.,-1.));
#666=DIRECTION('',(1.,0.,0.));
#667=DIRECTION('',(0.,0.,-1.));
#668=DIRECTION('',(1.,0.,0.));
#669=DIRECTION('',(0.,0.,-1.));
#670=DIRECTION('',(1.,0.,0.));
#671=DIRECTION('',(0.,0.,-1.));
#672=DIRECTION('',(1.,0.,0.));
#673=DIRECTION('',(0.,0.,-1.));
#674=DIRECTION('',(1.,0.,0.));
#675=DIRECTION('',(0.,0.,-1.));
#676=DIRECTION('',(-1.,0.,0.));
#677=DIRECTION('',(0.,0.,1.));
#678=CARTESIAN_POINT('',(0.,0.,0.));
#679=CARTESIAN_POINT('',(-31.9,0.,0.));
#680=CARTESIAN_POINT('',(-32.5,0.,0.));
#681=CARTESIAN_POINT('',(-32.5,0.,-8.90000000000003));
#682=CARTESIAN_POINT('',(-31.9,0.,0.));
#683=CARTESIAN_POINT('',(-31.9,0.,-9.5));
#684=CARTESIAN_POINT('',(-32.5,8.90000000000003,0.));
#685=CARTESIAN_POINT('',(-32.5,0.,0.));
#686=CARTESIAN_POINT('',(-32.5,0.,-5.3));
#687=CARTESIAN_POINT('',(32.5,5.,0.));
#688=CARTESIAN_POINT('',(32.5,0.,0.));
#689=CARTESIAN_POINT('',(32.5,0.,-8.9));
#690=CARTESIAN_POINT('',(32.5,0.,0.));
#691=CARTESIAN_POINT('',(32.5,0.,-5.29999999999999));
#692=CARTESIAN_POINT('',(31.9,0.,0.));
#693=CARTESIAN_POINT('',(31.9,0.,0.));
#694=CARTESIAN_POINT('',(31.9,0.,-9.5));
#695=CARTESIAN_POINT('',(500.,0.,0.));
#696=CARTESIAN_POINT('',(27.5,0.,0.));
#697=CARTESIAN_POINT('',(27.5,0.,-9.5));
#698=CARTESIAN_POINT('',(27.5,9.5,0.));
#699=CARTESIAN_POINT('',(27.5,0.,0.));
#700=CARTESIAN_POINT('',(27.5,0.,-9.2));
#701=CARTESIAN_POINT('',(27.2,0.,0.));
#702=CARTESIAN_POINT('',(27.2,0.,0.));
#703=CARTESIAN_POINT('',(27.2,0.,-9.5));
#704=CARTESIAN_POINT('',(500.,0.,0.));
#705=CARTESIAN_POINT('',(-15.5,0.,0.));
#706=CARTESIAN_POINT('',(-15.5,0.,-9.5));
#707=CARTESIAN_POINT('',(-15.5,9.5,0.));
#708=CARTESIAN_POINT('',(-15.5,0.,0.));
#709=CARTESIAN_POINT('',(-15.5,0.,-19.7));
#710=CARTESIAN_POINT('',(-15.5,14.5,0.));
#711=CARTESIAN_POINT('',(-15.5,14.5,-3.75));
#712=CARTESIAN_POINT('',(-15.5,0.,14.5));
#713=CARTESIAN_POINT('',(-15.5,0.,10.75));
#714=CARTESIAN_POINT('',(-15.5,-14.5,0.));
#715=CARTESIAN_POINT('',(-15.5,-14.5,-3.75));
#716=CARTESIAN_POINT('',(-15.5,0.,-14.5));
#717=CARTESIAN_POINT('',(-15.5,0.,-18.25));
#718=CARTESIAN_POINT('',(-15.8,0.,0.));
#719=CARTESIAN_POINT('',(-15.8,0.,0.));
#720=CARTESIAN_POINT('',(-15.8,0.,-20.));
#721=CARTESIAN_POINT('',(500.,0.,0.));
#722=CARTESIAN_POINT('',(-21.2,0.,0.));
#723=CARTESIAN_POINT('',(-21.2,0.,-20.));
#724=CARTESIAN_POINT('',(-21.2,0.,0.));
#725=CARTESIAN_POINT('',(-21.5,0.,0.));
#726=CARTESIAN_POINT('',(-21.5,0.,-19.7));
#727=CARTESIAN_POINT('',(-21.5,19.7,0.));
#728=CARTESIAN_POINT('',(-21.5,0.,0.));
#729=CARTESIAN_POINT('',(-21.5,0.,-9.5));
#730=CARTESIAN_POINT('',(-21.5,14.5,0.));
#731=CARTESIAN_POINT('',(-21.5,14.5,2.25));
#732=CARTESIAN_POINT('',(-21.5,0.,14.5));
#733=CARTESIAN_POINT('',(-21.5,0.,12.25));
#734=CARTESIAN_POINT('',(-21.5,-14.5,0.));
#735=CARTESIAN_POINT('',(-21.5,-14.5,-2.25));
#736=CARTESIAN_POINT('',(-21.5,0.,-14.5));
#737=CARTESIAN_POINT('',(-21.5,0.,-16.75));
#738=CARTESIAN_POINT('',(500.,0.,0.));
#739=CARTESIAN_POINT('',(-15.5,14.5,0.));
#740=CARTESIAN_POINT('',(-19.6,14.5,0.));
#741=CARTESIAN_POINT('',(-19.6,14.5,-2.25));
#742=CARTESIAN_POINT('',(-19.6,16.75,0.));
#743=CARTESIAN_POINT('',(-19.6,14.5,0.));
#744=CARTESIAN_POINT('',(-19.6,14.5,-3.75));
#745=CARTESIAN_POINT('',(-15.5,14.5,0.));
#746=CARTESIAN_POINT('',(-15.5,0.,-14.5));
#747=CARTESIAN_POINT('',(-19.6,0.,-14.5));
#748=CARTESIAN_POINT('',(-19.6,0.,-16.75));
#749=CARTESIAN_POINT('',(-19.6,2.25,-14.5));
#750=CARTESIAN_POINT('',(-19.6,0.,-14.5));
#751=CARTESIAN_POINT('',(-19.6,0.,-18.25));
#752=CARTESIAN_POINT('',(-15.5,0.,-14.5));
#753=CARTESIAN_POINT('',(-15.5,-14.5,0.));
#754=CARTESIAN_POINT('',(-19.6,-14.5,0.));
#755=CARTESIAN_POINT('',(-19.6,-14.5,-2.25));
#756=CARTESIAN_POINT('',(-19.6,-12.25,0.));
#757=CARTESIAN_POINT('',(-19.6,-14.5,0.));
#758=CARTESIAN_POINT('',(-19.6,-14.5,-3.75));
#759=CARTESIAN_POINT('',(-15.5,-14.5,0.));
#760=CARTESIAN_POINT('',(-15.5,0.,14.5));
#761=CARTESIAN_POINT('',(-19.6,0.,14.5));
#762=CARTESIAN_POINT('',(-19.6,0.,12.25));
#763=CARTESIAN_POINT('',(-19.6,2.25,14.5));
#764=CARTESIAN_POINT('',(-19.6,0.,14.5));
#765=CARTESIAN_POINT('',(-19.6,0.,10.75));
#766=CARTESIAN_POINT('',(-15.5,0.,14.5));
#767=CARTESIAN_POINT('',(31.8,5.6,0.));
#768=CARTESIAN_POINT('',(31.8,0.,0.));
#769=CARTESIAN_POINT('',(31.8,0.,-5.29999999999999));
#770=CARTESIAN_POINT('',(31.8,0.,0.));
#771=CARTESIAN_POINT('',(31.8,0.,-5.6));
#772=CARTESIAN_POINT('',(500.,0.,0.));
#773=CARTESIAN_POINT('',(500.,0.,0.));
#774=CARTESIAN_POINT('',(31.45,0.,0.));
#775=CARTESIAN_POINT('',(31.45,0.,-5.6));
#776=CARTESIAN_POINT('',(31.45,5.,0.));
#777=CARTESIAN_POINT('',(31.45,0.,0.));
#778=CARTESIAN_POINT('',(31.45,0.,-5.));
#779=CARTESIAN_POINT('',(500.,0.,0.));
#780=CARTESIAN_POINT('',(-31.45,0.,0.));
#781=CARTESIAN_POINT('',(-31.45,0.,-5.));
#782=CARTESIAN_POINT('',(500.,0.,0.));
#783=CARTESIAN_POINT('',(-31.8000000000001,0.,0.));
#784=CARTESIAN_POINT('',(-31.8000000000001,0.,-5.3));
#785=CARTESIAN_POINT('',(-31.8,5.3,0.));
#786=CARTESIAN_POINT('',(-31.8000000000001,0.,0.));
#787=CARTESIAN_POINT('',(-31.8000000000001,0.,-5.6));
#788=CARTESIAN_POINT('',(500.,0.,0.));
#789=CARTESIAN_POINT('',(-31.45,0.,0.));
#790=CARTESIAN_POINT('',(-31.45,0.,-5.6));
#791=CARTESIAN_POINT('',(-31.45,5.6,0.));
#792=MECHANICAL_DESIGN_GEOMETRIC_PRESENTATION_REPRESENTATION('',(#442),
#793);
#793=(
GEOMETRIC_REPRESENTATION_CONTEXT(3)
GLOBAL_UNCERTAINTY_ASSIGNED_CONTEXT((#794))
GLOBAL_UNIT_ASSIGNED_CONTEXT((#797,#796,#795))
REPRESENTATION_CONTEXT('LMFP10LUU-MX','TOP_LEVEL_ASSEMBLY_PART')
);
#794=UNCERTAINTY_MEASURE_WITH_UNIT(LENGTH_MEASURE(0.005),#797,
'DISTANCE_ACCURACY_VALUE','Maximum Tolerance applied to model');
#795=(
NAMED_UNIT(*)
SI_UNIT($,.STERADIAN.)
SOLID_ANGLE_UNIT()
);
#796=(
NAMED_UNIT(*)
PLANE_ANGLE_UNIT()
SI_UNIT($,.RADIAN.)
);
#797=(
LENGTH_UNIT()
NAMED_UNIT(*)
SI_UNIT(.MILLI.,.METRE.)
);
#798=PRODUCT_DEFINITION_SHAPE('','',#799);
#799=PRODUCT_DEFINITION('','',#801,#800);
#800=DESIGN_CONTEXT('',#807,'design');
#801=PRODUCT_DEFINITION_FORMATION_WITH_SPECIFIED_SOURCE('','',#803,
 .NOT_KNOWN.);
#802=PRODUCT_RELATED_PRODUCT_CATEGORY('','',(#803));
#803=PRODUCT('LMFP10LUU-MX','LMFP10LUU-MX','LMFP10LUU-MX',(#805));
#804=PRODUCT_CATEGORY('','');
#805=MECHANICAL_CONTEXT('',#807,'mechanical');
#806=APPLICATION_PROTOCOL_DEFINITION('international standard',
'config_control_design',2010,#807);
#807=APPLICATION_CONTEXT(
'configuration controlled 3D designs of mechanical parts and assemblie
s');
ENDSEC;
END-ISO-10303-21;
