ISO-10303-21;
HEADER;
/* Generated by software containing ST-Developer
 * from STEP Tools, Inc. (www.steptools.com) 
 */
/* OPTION: using custom renumber hook */

FILE_DESCRIPTION(
/* description */ ('STEP AP203'),
/* implementation_level */ '2;1');

FILE_NAME(
/* name */ 'LMH10LUU-MX',
/* time_stamp */ '2022-08-23T04:12:33+02:00',
/* author */ ('License CC BY-ND 4.0'),
/* organization */ ('CADENAS'),
/* preprocessor_version */ 'ST-DEVELOPER v18.102',
/* originating_system */ 'PARTsolutions',
/* authorisation */ '  ');

FILE_SCHEMA (('CONFIG_CONTROL_DESIGN'));
ENDSEC;

DATA;
#10=PROPERTY_DEFINITION_REPRESENTATION(#14,#12);
#11=PROPERTY_DEFINITION_REPRESENTATION(#15,#13);
#12=REPRESENTATION('',(#16),#711);
#13=REPRESENTATION('',(#17),#711);
#14=PROPERTY_DEFINITION('pmi validation property','',#716);
#15=PROPERTY_DEFINITION('pmi validation property','',#716);
#16=VALUE_REPRESENTATION_ITEM('number of annotations',COUNT_MEASURE(0.));
#17=VALUE_REPRESENTATION_ITEM('number of views',COUNT_MEASURE(0.));
#18=SHAPE_REPRESENTATION_RELATIONSHIP('','',#410,#19);
#19=ADVANCED_BREP_SHAPE_REPRESENTATION('',(#408),#711);
#20=LINE('',#641,#28);
#21=LINE('',#645,#29);
#22=LINE('',#647,#30);
#23=LINE('',#649,#31);
#24=LINE('',#651,#32);
#25=LINE('',#657,#33);
#26=LINE('',#659,#34);
#27=LINE('',#660,#35);
#28=VECTOR('',#519,1000.);
#29=VECTOR('',#522,1000.);
#30=VECTOR('',#525,1000.);
#31=VECTOR('',#526,1000.);
#32=VECTOR('',#527,1000.);
#33=VECTOR('',#534,1000.);
#34=VECTOR('',#537,1000.);
#35=VECTOR('',#538,1000.);
#36=PLANE('',#418);
#37=PLANE('',#420);
#38=PLANE('',#429);
#39=PLANE('',#435);
#40=PLANE('',#439);
#41=PLANE('',#440);
#42=PLANE('',#443);
#43=PLANE('',#448);
#44=PLANE('',#453);
#45=PLANE('',#456);
#46=PLANE('',#462);
#47=PLANE('',#468);
#48=PLANE('',#472);
#49=TOROIDAL_SURFACE('',#415,8.90000000000002,0.599999999999984);
#50=TOROIDAL_SURFACE('',#423,8.90000000000001,0.599999999999989);
#51=TOROIDAL_SURFACE('',#427,9.2,0.300000000000002);
#52=ORIENTED_EDGE('',*,*,#130,.T.);
#53=ORIENTED_EDGE('',*,*,#131,.T.);
#54=ORIENTED_EDGE('',*,*,#132,.T.);
#55=ORIENTED_EDGE('',*,*,#133,.F.);
#56=ORIENTED_EDGE('',*,*,#134,.T.);
#57=ORIENTED_EDGE('',*,*,#132,.F.);
#58=ORIENTED_EDGE('',*,*,#135,.T.);
#59=ORIENTED_EDGE('',*,*,#136,.F.);
#60=ORIENTED_EDGE('',*,*,#137,.T.);
#61=ORIENTED_EDGE('',*,*,#135,.F.);
#62=ORIENTED_EDGE('',*,*,#138,.F.);
#63=ORIENTED_EDGE('',*,*,#137,.F.);
#64=ORIENTED_EDGE('',*,*,#139,.T.);
#65=ORIENTED_EDGE('',*,*,#130,.F.);
#66=ORIENTED_EDGE('',*,*,#140,.T.);
#67=ORIENTED_EDGE('',*,*,#139,.F.);
#68=ORIENTED_EDGE('',*,*,#133,.T.);
#69=ORIENTED_EDGE('',*,*,#140,.F.);
#70=ORIENTED_EDGE('',*,*,#141,.F.);
#71=ORIENTED_EDGE('',*,*,#142,.F.);
#72=ORIENTED_EDGE('',*,*,#143,.T.);
#73=ORIENTED_EDGE('',*,*,#144,.T.);
#74=ORIENTED_EDGE('',*,*,#145,.F.);
#75=ORIENTED_EDGE('',*,*,#144,.F.);
#76=ORIENTED_EDGE('',*,*,#146,.T.);
#77=ORIENTED_EDGE('',*,*,#147,.T.);
#78=ORIENTED_EDGE('',*,*,#148,.F.);
#79=ORIENTED_EDGE('',*,*,#147,.F.);
#80=ORIENTED_EDGE('',*,*,#149,.T.);
#81=ORIENTED_EDGE('',*,*,#150,.T.);
#82=ORIENTED_EDGE('',*,*,#151,.F.);
#83=ORIENTED_EDGE('',*,*,#150,.F.);
#84=ORIENTED_EDGE('',*,*,#152,.T.);
#85=ORIENTED_EDGE('',*,*,#142,.T.);
#86=ORIENTED_EDGE('',*,*,#153,.F.);
#87=ORIENTED_EDGE('',*,*,#154,.T.);
#88=ORIENTED_EDGE('',*,*,#131,.F.);
#89=ORIENTED_EDGE('',*,*,#143,.F.);
#90=ORIENTED_EDGE('',*,*,#152,.F.);
#91=ORIENTED_EDGE('',*,*,#149,.F.);
#92=ORIENTED_EDGE('',*,*,#146,.F.);
#93=ORIENTED_EDGE('',*,*,#155,.T.);
#94=ORIENTED_EDGE('',*,*,#156,.F.);
#95=ORIENTED_EDGE('',*,*,#138,.T.);
#96=ORIENTED_EDGE('',*,*,#141,.T.);
#97=ORIENTED_EDGE('',*,*,#145,.T.);
#98=ORIENTED_EDGE('',*,*,#148,.T.);
#99=ORIENTED_EDGE('',*,*,#151,.T.);
#100=ORIENTED_EDGE('',*,*,#157,.T.);
#101=ORIENTED_EDGE('',*,*,#154,.F.);
#102=ORIENTED_EDGE('',*,*,#158,.T.);
#103=ORIENTED_EDGE('',*,*,#157,.F.);
#104=ORIENTED_EDGE('',*,*,#156,.T.);
#105=ORIENTED_EDGE('',*,*,#158,.F.);
#106=ORIENTED_EDGE('',*,*,#159,.T.);
#107=ORIENTED_EDGE('',*,*,#155,.F.);
#108=ORIENTED_EDGE('',*,*,#160,.T.);
#109=ORIENTED_EDGE('',*,*,#159,.F.);
#110=ORIENTED_EDGE('',*,*,#153,.T.);
#111=ORIENTED_EDGE('',*,*,#160,.F.);
#112=ORIENTED_EDGE('',*,*,#161,.T.);
#113=ORIENTED_EDGE('',*,*,#162,.F.);
#114=ORIENTED_EDGE('',*,*,#136,.T.);
#115=ORIENTED_EDGE('',*,*,#161,.F.);
#116=ORIENTED_EDGE('',*,*,#162,.T.);
#117=ORIENTED_EDGE('',*,*,#163,.F.);
#118=ORIENTED_EDGE('',*,*,#163,.T.);
#119=ORIENTED_EDGE('',*,*,#164,.F.);
#120=ORIENTED_EDGE('',*,*,#164,.T.);
#121=ORIENTED_EDGE('',*,*,#165,.F.);
#122=ORIENTED_EDGE('',*,*,#166,.T.);
#123=ORIENTED_EDGE('',*,*,#134,.F.);
#124=ORIENTED_EDGE('',*,*,#167,.T.);
#125=ORIENTED_EDGE('',*,*,#166,.F.);
#126=ORIENTED_EDGE('',*,*,#168,.T.);
#127=ORIENTED_EDGE('',*,*,#167,.F.);
#128=ORIENTED_EDGE('',*,*,#165,.T.);
#129=ORIENTED_EDGE('',*,*,#168,.F.);
#130=EDGE_CURVE('',#169,#169,#204,.T.);
#131=EDGE_CURVE('',#170,#170,#205,.F.);
#132=EDGE_CURVE('',#171,#171,#206,.T.);
#133=EDGE_CURVE('',#172,#172,#207,.T.);
#134=EDGE_CURVE('',#173,#173,#208,.T.);
#135=EDGE_CURVE('',#174,#174,#209,.T.);
#136=EDGE_CURVE('',#175,#175,#210,.T.);
#137=EDGE_CURVE('',#176,#176,#211,.T.);
#138=EDGE_CURVE('',#177,#177,#212,.F.);
#139=EDGE_CURVE('',#178,#178,#213,.T.);
#140=EDGE_CURVE('',#179,#179,#214,.T.);
#141=EDGE_CURVE('',#180,#181,#215,.T.);
#142=EDGE_CURVE('',#182,#180,#20,.T.);
#143=EDGE_CURVE('',#182,#183,#216,.T.);
#144=EDGE_CURVE('',#183,#181,#21,.T.);
#145=EDGE_CURVE('',#181,#184,#22,.T.);
#146=EDGE_CURVE('',#183,#185,#23,.T.);
#147=EDGE_CURVE('',#185,#184,#24,.T.);
#148=EDGE_CURVE('',#184,#186,#217,.T.);
#149=EDGE_CURVE('',#185,#187,#218,.T.);
#150=EDGE_CURVE('',#187,#186,#25,.T.);
#151=EDGE_CURVE('',#186,#180,#26,.T.);
#152=EDGE_CURVE('',#187,#182,#27,.T.);
#153=EDGE_CURVE('',#188,#188,#219,.T.);
#154=EDGE_CURVE('',#189,#189,#220,.T.);
#155=EDGE_CURVE('',#190,#190,#221,.T.);
#156=EDGE_CURVE('',#191,#191,#222,.T.);
#157=EDGE_CURVE('',#192,#192,#223,.T.);
#158=EDGE_CURVE('',#193,#193,#224,.T.);
#159=EDGE_CURVE('',#194,#194,#225,.T.);
#160=EDGE_CURVE('',#195,#195,#226,.T.);
#161=EDGE_CURVE('',#196,#196,#227,.T.);
#162=EDGE_CURVE('',#197,#197,#228,.T.);
#163=EDGE_CURVE('',#198,#198,#229,.T.);
#164=EDGE_CURVE('',#199,#199,#230,.T.);
#165=EDGE_CURVE('',#200,#200,#231,.T.);
#166=EDGE_CURVE('',#201,#201,#232,.T.);
#167=EDGE_CURVE('',#202,#202,#233,.T.);
#168=EDGE_CURVE('',#203,#203,#234,.T.);
#169=VERTEX_POINT('',#608);
#170=VERTEX_POINT('',#610);
#171=VERTEX_POINT('',#613);
#172=VERTEX_POINT('',#615);
#173=VERTEX_POINT('',#618);
#174=VERTEX_POINT('',#621);
#175=VERTEX_POINT('',#623);
#176=VERTEX_POINT('',#626);
#177=VERTEX_POINT('',#629);
#178=VERTEX_POINT('',#632);
#179=VERTEX_POINT('',#635);
#180=VERTEX_POINT('',#639);
#181=VERTEX_POINT('',#640);
#182=VERTEX_POINT('',#642);
#183=VERTEX_POINT('',#644);
#184=VERTEX_POINT('',#648);
#185=VERTEX_POINT('',#650);
#186=VERTEX_POINT('',#654);
#187=VERTEX_POINT('',#656);
#188=VERTEX_POINT('',#663);
#189=VERTEX_POINT('',#665);
#190=VERTEX_POINT('',#668);
#191=VERTEX_POINT('',#670);
#192=VERTEX_POINT('',#673);
#193=VERTEX_POINT('',#676);
#194=VERTEX_POINT('',#680);
#195=VERTEX_POINT('',#683);
#196=VERTEX_POINT('',#687);
#197=VERTEX_POINT('',#689);
#198=VERTEX_POINT('',#693);
#199=VERTEX_POINT('',#696);
#200=VERTEX_POINT('',#699);
#201=VERTEX_POINT('',#702);
#202=VERTEX_POINT('',#705);
#203=VERTEX_POINT('',#708);
#204=CIRCLE('',#413,9.5);
#205=CIRCLE('',#414,9.5);
#206=CIRCLE('',#416,8.9);
#207=CIRCLE('',#417,9.5);
#208=CIRCLE('',#419,5.3);
#209=CIRCLE('',#421,8.9);
#210=CIRCLE('',#422,5.29999999999999);
#211=CIRCLE('',#424,9.5);
#212=CIRCLE('',#426,9.5);
#213=CIRCLE('',#428,9.19999999999999);
#214=CIRCLE('',#430,9.5);
#215=CIRCLE('',#433,20.);
#216=CIRCLE('',#434,20.);
#217=CIRCLE('',#437,20.);
#218=CIRCLE('',#438,20.);
#219=CIRCLE('',#441,2.25);
#220=CIRCLE('',#442,2.25);
#221=CIRCLE('',#444,3.75);
#222=CIRCLE('',#445,3.75);
#223=CIRCLE('',#447,2.25);
#224=CIRCLE('',#449,3.75);
#225=CIRCLE('',#452,3.75);
#226=CIRCLE('',#454,2.25);
#227=CIRCLE('',#457,5.29999999999999);
#228=CIRCLE('',#458,5.6);
#229=CIRCLE('',#461,5.6);
#230=CIRCLE('',#463,5.);
#231=CIRCLE('',#465,5.);
#232=CIRCLE('',#467,5.3);
#233=CIRCLE('',#469,5.6);
#234=CIRCLE('',#471,5.6);
#235=EDGE_LOOP('',(#52));
#236=EDGE_LOOP('',(#53));
#237=EDGE_LOOP('',(#54));
#238=EDGE_LOOP('',(#55));
#239=EDGE_LOOP('',(#56));
#240=EDGE_LOOP('',(#57));
#241=EDGE_LOOP('',(#58));
#242=EDGE_LOOP('',(#59));
#243=EDGE_LOOP('',(#60));
#244=EDGE_LOOP('',(#61));
#245=EDGE_LOOP('',(#62));
#246=EDGE_LOOP('',(#63));
#247=EDGE_LOOP('',(#64));
#248=EDGE_LOOP('',(#65));
#249=EDGE_LOOP('',(#66));
#250=EDGE_LOOP('',(#67));
#251=EDGE_LOOP('',(#68));
#252=EDGE_LOOP('',(#69));
#253=EDGE_LOOP('',(#70,#71,#72,#73));
#254=EDGE_LOOP('',(#74,#75,#76,#77));
#255=EDGE_LOOP('',(#78,#79,#80,#81));
#256=EDGE_LOOP('',(#82,#83,#84,#85));
#257=EDGE_LOOP('',(#86));
#258=EDGE_LOOP('',(#87));
#259=EDGE_LOOP('',(#88));
#260=EDGE_LOOP('',(#89,#90,#91,#92));
#261=EDGE_LOOP('',(#93));
#262=EDGE_LOOP('',(#94));
#263=EDGE_LOOP('',(#95));
#264=EDGE_LOOP('',(#96,#97,#98,#99));
#265=EDGE_LOOP('',(#100));
#266=EDGE_LOOP('',(#101));
#267=EDGE_LOOP('',(#102));
#268=EDGE_LOOP('',(#103));
#269=EDGE_LOOP('',(#104));
#270=EDGE_LOOP('',(#105));
#271=EDGE_LOOP('',(#106));
#272=EDGE_LOOP('',(#107));
#273=EDGE_LOOP('',(#108));
#274=EDGE_LOOP('',(#109));
#275=EDGE_LOOP('',(#110));
#276=EDGE_LOOP('',(#111));
#277=EDGE_LOOP('',(#112));
#278=EDGE_LOOP('',(#113));
#279=EDGE_LOOP('',(#114));
#280=EDGE_LOOP('',(#115));
#281=EDGE_LOOP('',(#116));
#282=EDGE_LOOP('',(#117));
#283=EDGE_LOOP('',(#118));
#284=EDGE_LOOP('',(#119));
#285=EDGE_LOOP('',(#120));
#286=EDGE_LOOP('',(#121));
#287=EDGE_LOOP('',(#122));
#288=EDGE_LOOP('',(#123));
#289=EDGE_LOOP('',(#124));
#290=EDGE_LOOP('',(#125));
#291=EDGE_LOOP('',(#126));
#292=EDGE_LOOP('',(#127));
#293=EDGE_LOOP('',(#128));
#294=EDGE_LOOP('',(#129));
#295=FACE_BOUND('',#235,.T.);
#296=FACE_BOUND('',#236,.T.);
#297=FACE_BOUND('',#237,.T.);
#298=FACE_BOUND('',#238,.T.);
#299=FACE_BOUND('',#239,.T.);
#300=FACE_BOUND('',#240,.T.);
#301=FACE_BOUND('',#241,.T.);
#302=FACE_BOUND('',#242,.T.);
#303=FACE_BOUND('',#243,.T.);
#304=FACE_BOUND('',#244,.T.);
#305=FACE_BOUND('',#245,.T.);
#306=FACE_BOUND('',#246,.T.);
#307=FACE_BOUND('',#247,.T.);
#308=FACE_BOUND('',#248,.T.);
#309=FACE_BOUND('',#249,.T.);
#310=FACE_BOUND('',#250,.T.);
#311=FACE_BOUND('',#251,.T.);
#312=FACE_BOUND('',#252,.T.);
#313=FACE_BOUND('',#253,.T.);
#314=FACE_BOUND('',#254,.T.);
#315=FACE_BOUND('',#255,.T.);
#316=FACE_BOUND('',#256,.T.);
#317=FACE_BOUND('',#257,.T.);
#318=FACE_BOUND('',#258,.T.);
#319=FACE_BOUND('',#259,.T.);
#320=FACE_BOUND('',#260,.T.);
#321=FACE_BOUND('',#261,.T.);
#322=FACE_BOUND('',#262,.T.);
#323=FACE_BOUND('',#263,.T.);
#324=FACE_BOUND('',#264,.T.);
#325=FACE_BOUND('',#265,.T.);
#326=FACE_BOUND('',#266,.T.);
#327=FACE_BOUND('',#267,.T.);
#328=FACE_BOUND('',#268,.T.);
#329=FACE_BOUND('',#269,.T.);
#330=FACE_BOUND('',#270,.T.);
#331=FACE_BOUND('',#271,.T.);
#332=FACE_BOUND('',#272,.T.);
#333=FACE_BOUND('',#273,.T.);
#334=FACE_BOUND('',#274,.T.);
#335=FACE_BOUND('',#275,.T.);
#336=FACE_BOUND('',#276,.T.);
#337=FACE_BOUND('',#277,.T.);
#338=FACE_BOUND('',#278,.T.);
#339=FACE_BOUND('',#279,.T.);
#340=FACE_BOUND('',#280,.T.);
#341=FACE_BOUND('',#281,.T.);
#342=FACE_BOUND('',#282,.T.);
#343=FACE_BOUND('',#283,.T.);
#344=FACE_BOUND('',#284,.T.);
#345=FACE_BOUND('',#285,.T.);
#346=FACE_BOUND('',#286,.T.);
#347=FACE_BOUND('',#287,.T.);
#348=FACE_BOUND('',#288,.T.);
#349=FACE_BOUND('',#289,.T.);
#350=FACE_BOUND('',#290,.T.);
#351=FACE_BOUND('',#291,.T.);
#352=FACE_BOUND('',#292,.T.);
#353=FACE_BOUND('',#293,.T.);
#354=FACE_BOUND('',#294,.T.);
#355=CYLINDRICAL_SURFACE('',#412,9.5);
#356=CYLINDRICAL_SURFACE('',#425,9.5);
#357=CYLINDRICAL_SURFACE('',#431,9.5);
#358=CYLINDRICAL_SURFACE('',#432,20.);
#359=CYLINDRICAL_SURFACE('',#436,20.);
#360=CYLINDRICAL_SURFACE('',#446,2.25);
#361=CYLINDRICAL_SURFACE('',#450,3.75);
#362=CYLINDRICAL_SURFACE('',#451,3.75);
#363=CYLINDRICAL_SURFACE('',#455,2.25);
#364=CYLINDRICAL_SURFACE('',#459,5.29999999999999);
#365=CYLINDRICAL_SURFACE('',#460,5.6);
#366=CYLINDRICAL_SURFACE('',#464,5.);
#367=CYLINDRICAL_SURFACE('',#466,5.3);
#368=CYLINDRICAL_SURFACE('',#470,5.6);
#369=ADVANCED_FACE('',(#295,#296),#355,.T.);
#370=ADVANCED_FACE('',(#297,#298),#49,.T.);
#371=ADVANCED_FACE('',(#299,#300),#36,.T.);
#372=ADVANCED_FACE('',(#301,#302),#37,.T.);
#373=ADVANCED_FACE('',(#303,#304),#50,.T.);
#374=ADVANCED_FACE('',(#305,#306),#356,.T.);
#375=ADVANCED_FACE('',(#307,#308),#51,.T.);
#376=ADVANCED_FACE('',(#309,#310),#38,.T.);
#377=ADVANCED_FACE('',(#311,#312),#357,.T.);
#378=ADVANCED_FACE('',(#313),#358,.T.);
#379=ADVANCED_FACE('',(#314),#39,.T.);
#380=ADVANCED_FACE('',(#315),#359,.T.);
#381=ADVANCED_FACE('',(#316),#40,.T.);
#382=ADVANCED_FACE('',(#317,#318,#319,#320),#41,.F.);
#383=ADVANCED_FACE('',(#321,#322,#323,#324),#42,.T.);
#384=ADVANCED_FACE('',(#325,#326),#360,.F.);
#385=ADVANCED_FACE('',(#327,#328),#43,.T.);
#386=ADVANCED_FACE('',(#329,#330),#361,.F.);
#387=ADVANCED_FACE('',(#331,#332),#362,.F.);
#388=ADVANCED_FACE('',(#333,#334),#44,.T.);
#389=ADVANCED_FACE('',(#335,#336),#363,.F.);
#390=ADVANCED_FACE('',(#337,#338),#45,.T.);
#391=ADVANCED_FACE('',(#339,#340),#364,.F.);
#392=ADVANCED_FACE('',(#341,#342),#365,.F.);
#393=ADVANCED_FACE('',(#343,#344),#46,.T.);
#394=ADVANCED_FACE('',(#345,#346),#366,.F.);
#395=ADVANCED_FACE('',(#347,#348),#367,.F.);
#396=ADVANCED_FACE('',(#349,#350),#47,.T.);
#397=ADVANCED_FACE('',(#351,#352),#368,.F.);
#398=ADVANCED_FACE('',(#353,#354),#48,.T.);
#399=CLOSED_SHELL('',(#369,#370,#371,#372,#373,#374,#375,#376,#377,#378,
#379,#380,#381,#382,#383,#384,#385,#386,#387,#388,#389,#390,#391,#392,#393,
#394,#395,#396,#397,#398));
#400=STYLED_ITEM('',(#401),#408);
#401=PRESENTATION_STYLE_ASSIGNMENT((#402));
#402=SURFACE_STYLE_USAGE(.BOTH.,#403);
#403=SURFACE_SIDE_STYLE('',(#404));
#404=SURFACE_STYLE_FILL_AREA(#405);
#405=FILL_AREA_STYLE('',(#406));
#406=FILL_AREA_STYLE_COLOUR('',#407);
#407=COLOUR_RGB('',0.689999997615814,0.689999997615814,0.689999997615814);
#408=MANIFOLD_SOLID_BREP('LMH10LUU-MX',#399);
#409=SHAPE_DEFINITION_REPRESENTATION(#716,#410);
#410=SHAPE_REPRESENTATION('LMH10LUU-MX',(#411),#711);
#411=AXIS2_PLACEMENT_3D('',#605,#473,#474);
#412=AXIS2_PLACEMENT_3D('',#606,#475,#476);
#413=AXIS2_PLACEMENT_3D('',#607,#477,#478);
#414=AXIS2_PLACEMENT_3D('',#609,#479,#480);
#415=AXIS2_PLACEMENT_3D('',#611,#481,#482);
#416=AXIS2_PLACEMENT_3D('',#612,#483,#484);
#417=AXIS2_PLACEMENT_3D('',#614,#485,#486);
#418=AXIS2_PLACEMENT_3D('',#616,#487,#488);
#419=AXIS2_PLACEMENT_3D('',#617,#489,#490);
#420=AXIS2_PLACEMENT_3D('',#619,#491,#492);
#421=AXIS2_PLACEMENT_3D('',#620,#493,#494);
#422=AXIS2_PLACEMENT_3D('',#622,#495,#496);
#423=AXIS2_PLACEMENT_3D('',#624,#497,#498);
#424=AXIS2_PLACEMENT_3D('',#625,#499,#500);
#425=AXIS2_PLACEMENT_3D('',#627,#501,#502);
#426=AXIS2_PLACEMENT_3D('',#628,#503,#504);
#427=AXIS2_PLACEMENT_3D('',#630,#505,#506);
#428=AXIS2_PLACEMENT_3D('',#631,#507,#508);
#429=AXIS2_PLACEMENT_3D('',#633,#509,#510);
#430=AXIS2_PLACEMENT_3D('',#634,#511,#512);
#431=AXIS2_PLACEMENT_3D('',#636,#513,#514);
#432=AXIS2_PLACEMENT_3D('',#637,#515,#516);
#433=AXIS2_PLACEMENT_3D('',#638,#517,#518);
#434=AXIS2_PLACEMENT_3D('',#643,#520,#521);
#435=AXIS2_PLACEMENT_3D('',#646,#523,#524);
#436=AXIS2_PLACEMENT_3D('',#652,#528,#529);
#437=AXIS2_PLACEMENT_3D('',#653,#530,#531);
#438=AXIS2_PLACEMENT_3D('',#655,#532,#533);
#439=AXIS2_PLACEMENT_3D('',#658,#535,#536);
#440=AXIS2_PLACEMENT_3D('',#661,#539,#540);
#441=AXIS2_PLACEMENT_3D('',#662,#541,#542);
#442=AXIS2_PLACEMENT_3D('',#664,#543,#544);
#443=AXIS2_PLACEMENT_3D('',#666,#545,#546);
#444=AXIS2_PLACEMENT_3D('',#667,#547,#548);
#445=AXIS2_PLACEMENT_3D('',#669,#549,#550);
#446=AXIS2_PLACEMENT_3D('',#671,#551,#552);
#447=AXIS2_PLACEMENT_3D('',#672,#553,#554);
#448=AXIS2_PLACEMENT_3D('',#674,#555,#556);
#449=AXIS2_PLACEMENT_3D('',#675,#557,#558);
#450=AXIS2_PLACEMENT_3D('',#677,#559,#560);
#451=AXIS2_PLACEMENT_3D('',#678,#561,#562);
#452=AXIS2_PLACEMENT_3D('',#679,#563,#564);
#453=AXIS2_PLACEMENT_3D('',#681,#565,#566);
#454=AXIS2_PLACEMENT_3D('',#682,#567,#568);
#455=AXIS2_PLACEMENT_3D('',#684,#569,#570);
#456=AXIS2_PLACEMENT_3D('',#685,#571,#572);
#457=AXIS2_PLACEMENT_3D('',#686,#573,#574);
#458=AXIS2_PLACEMENT_3D('',#688,#575,#576);
#459=AXIS2_PLACEMENT_3D('',#690,#577,#578);
#460=AXIS2_PLACEMENT_3D('',#691,#579,#580);
#461=AXIS2_PLACEMENT_3D('',#692,#581,#582);
#462=AXIS2_PLACEMENT_3D('',#694,#583,#584);
#463=AXIS2_PLACEMENT_3D('',#695,#585,#586);
#464=AXIS2_PLACEMENT_3D('',#697,#587,#588);
#465=AXIS2_PLACEMENT_3D('',#698,#589,#590);
#466=AXIS2_PLACEMENT_3D('',#700,#591,#592);
#467=AXIS2_PLACEMENT_3D('',#701,#593,#594);
#468=AXIS2_PLACEMENT_3D('',#703,#595,#596);
#469=AXIS2_PLACEMENT_3D('',#704,#597,#598);
#470=AXIS2_PLACEMENT_3D('',#706,#599,#600);
#471=AXIS2_PLACEMENT_3D('',#707,#601,#602);
#472=AXIS2_PLACEMENT_3D('',#709,#603,#604);
#473=DIRECTION('',(0.,0.,1.));
#474=DIRECTION('',(1.,0.,0.));
#475=DIRECTION('',(1.,0.,0.));
#476=DIRECTION('',(0.,0.,-1.));
#477=DIRECTION('',(1.,0.,0.));
#478=DIRECTION('',(0.,0.,-1.));
#479=DIRECTION('',(1.,0.,0.));
#480=DIRECTION('',(0.,0.,-1.));
#481=DIRECTION('',(1.,0.,0.));
#482=DIRECTION('',(0.,0.,-1.));
#483=DIRECTION('',(1.,0.,0.));
#484=DIRECTION('',(0.,0.,-1.));
#485=DIRECTION('',(1.,0.,0.));
#486=DIRECTION('',(0.,0.,-1.));
#487=DIRECTION('',(-1.,0.,0.));
#488=DIRECTION('',(0.,0.,1.));
#489=DIRECTION('',(1.,0.,0.));
#490=DIRECTION('',(0.,0.,-1.));
#491=DIRECTION('',(1.,0.,0.));
#492=DIRECTION('',(0.,0.,-1.));
#493=DIRECTION('',(1.,0.,0.));
#494=DIRECTION('',(0.,0.,-1.));
#495=DIRECTION('',(1.,0.,0.));
#496=DIRECTION('',(0.,0.,-1.));
#497=DIRECTION('',(1.,0.,0.));
#498=DIRECTION('',(0.,0.,-1.));
#499=DIRECTION('',(1.,0.,0.));
#500=DIRECTION('',(0.,0.,-1.));
#501=DIRECTION('',(1.,0.,0.));
#502=DIRECTION('',(0.,0.,-1.));
#503=DIRECTION('',(1.,0.,0.));
#504=DIRECTION('',(0.,0.,-1.));
#505=DIRECTION('',(1.,0.,0.));
#506=DIRECTION('',(0.,0.,-1.));
#507=DIRECTION('',(1.,0.,0.));
#508=DIRECTION('',(0.,0.,-1.));
#509=DIRECTION('',(1.,0.,0.));
#510=DIRECTION('',(0.,0.,-1.));
#511=DIRECTION('',(1.,0.,0.));
#512=DIRECTION('',(0.,0.,-1.));
#513=DIRECTION('',(1.,0.,0.));
#514=DIRECTION('',(0.,0.,-1.));
#515=DIRECTION('',(1.,0.,0.));
#516=DIRECTION('',(0.,0.,-1.));
#517=DIRECTION('',(1.,0.,0.));
#518=DIRECTION('',(0.,0.,-1.));
#519=DIRECTION('',(1.,0.,0.));
#520=DIRECTION('',(1.,0.,0.));
#521=DIRECTION('',(0.,0.,-1.));
#522=DIRECTION('',(1.,0.,0.));
#523=DIRECTION('',(0.,0.,1.));
#524=DIRECTION('',(1.,0.,0.));
#525=DIRECTION('',(0.,-1.,0.));
#526=DIRECTION('',(0.,-1.,0.));
#527=DIRECTION('',(1.,0.,0.));
#528=DIRECTION('',(1.,0.,0.));
#529=DIRECTION('',(0.,0.,-1.));
#530=DIRECTION('',(1.,0.,0.));
#531=DIRECTION('',(0.,0.,-1.));
#532=DIRECTION('',(1.,0.,0.));
#533=DIRECTION('',(0.,0.,-1.));
#534=DIRECTION('',(1.,0.,0.));
#535=DIRECTION('',(0.,0.,-1.));
#536=DIRECTION('',(-1.,0.,0.));
#537=DIRECTION('',(0.,1.,0.));
#538=DIRECTION('',(0.,1.,0.));
#539=DIRECTION('',(1.,0.,0.));
#540=DIRECTION('',(0.,0.,-1.));
#541=DIRECTION('',(-1.,0.,0.));
#542=DIRECTION('',(0.,0.,1.));
#543=DIRECTION('',(1.,0.,0.));
#544=DIRECTION('',(0.,0.,-1.));
#545=DIRECTION('',(1.,0.,0.));
#546=DIRECTION('',(0.,0.,-1.));
#547=DIRECTION('',(-1.,0.,0.));
#548=DIRECTION('',(0.,0.,1.));
#549=DIRECTION('',(1.,0.,0.));
#550=DIRECTION('',(0.,0.,-1.));
#551=DIRECTION('',(1.,0.,0.));
#552=DIRECTION('',(0.,0.,-1.));
#553=DIRECTION('',(1.,0.,0.));
#554=DIRECTION('',(0.,0.,-1.));
#555=DIRECTION('',(1.,0.,0.));
#556=DIRECTION('',(0.,0.,-1.));
#557=DIRECTION('',(1.,0.,0.));
#558=DIRECTION('',(0.,0.,-1.));
#559=DIRECTION('',(1.,0.,0.));
#560=DIRECTION('',(0.,0.,-1.));
#561=DIRECTION('',(-1.,0.,0.));
#562=DIRECTION('',(0.,0.,1.));
#563=DIRECTION('',(-1.,0.,0.));
#564=DIRECTION('',(0.,0.,1.));
#565=DIRECTION('',(1.,0.,0.));
#566=DIRECTION('',(0.,0.,-1.));
#567=DIRECTION('',(-1.,0.,0.));
#568=DIRECTION('',(0.,0.,1.));
#569=DIRECTION('',(-1.,0.,0.));
#570=DIRECTION('',(0.,0.,1.));
#571=DIRECTION('',(-1.,0.,0.));
#572=DIRECTION('',(0.,0.,1.));
#573=DIRECTION('',(1.,0.,0.));
#574=DIRECTION('',(0.,0.,-1.));
#575=DIRECTION('',(1.,0.,0.));
#576=DIRECTION('',(0.,0.,-1.));
#577=DIRECTION('',(1.,0.,0.));
#578=DIRECTION('',(0.,0.,-1.));
#579=DIRECTION('',(1.,0.,0.));
#580=DIRECTION('',(0.,0.,-1.));
#581=DIRECTION('',(1.,0.,0.));
#582=DIRECTION('',(0.,0.,-1.));
#583=DIRECTION('',(1.,0.,0.));
#584=DIRECTION('',(0.,0.,-1.));
#585=DIRECTION('',(1.,0.,0.));
#586=DIRECTION('',(0.,0.,-1.));
#587=DIRECTION('',(1.,0.,0.));
#588=DIRECTION('',(0.,0.,-1.));
#589=DIRECTION('',(1.,0.,0.));
#590=DIRECTION('',(0.,0.,-1.));
#591=DIRECTION('',(1.,0.,0.));
#592=DIRECTION('',(0.,0.,-1.));
#593=DIRECTION('',(1.,0.,0.));
#594=DIRECTION('',(0.,0.,-1.));
#595=DIRECTION('',(1.,0.,0.));
#596=DIRECTION('',(0.,0.,-1.));
#597=DIRECTION('',(1.,0.,0.));
#598=DIRECTION('',(0.,0.,-1.));
#599=DIRECTION('',(1.,0.,0.));
#600=DIRECTION('',(0.,0.,-1.));
#601=DIRECTION('',(1.,0.,0.));
#602=DIRECTION('',(0.,0.,-1.));
#603=DIRECTION('',(-1.,0.,0.));
#604=DIRECTION('',(0.,0.,1.));
#605=CARTESIAN_POINT('',(0.,0.,0.));
#606=CARTESIAN_POINT('',(500.,0.,0.));
#607=CARTESIAN_POINT('',(-27.2,0.,0.));
#608=CARTESIAN_POINT('',(-27.2,0.,-9.5));
#609=CARTESIAN_POINT('',(21.5,0.,0.));
#610=CARTESIAN_POINT('',(21.5,0.,-9.5));
#611=CARTESIAN_POINT('',(-31.9,0.,0.));
#612=CARTESIAN_POINT('',(-32.5,0.,0.));
#613=CARTESIAN_POINT('',(-32.5,0.,-8.9));
#614=CARTESIAN_POINT('',(-31.9,0.,0.));
#615=CARTESIAN_POINT('',(-31.9,0.,-9.5));
#616=CARTESIAN_POINT('',(-32.5,8.9,0.));
#617=CARTESIAN_POINT('',(-32.5,0.,0.));
#618=CARTESIAN_POINT('',(-32.5,0.,-5.3));
#619=CARTESIAN_POINT('',(32.5,5.,0.));
#620=CARTESIAN_POINT('',(32.5,0.,0.));
#621=CARTESIAN_POINT('',(32.5,0.,-8.9));
#622=CARTESIAN_POINT('',(32.5,0.,0.));
#623=CARTESIAN_POINT('',(32.5,0.,-5.29999999999999));
#624=CARTESIAN_POINT('',(31.9,0.,0.));
#625=CARTESIAN_POINT('',(31.9,0.,0.));
#626=CARTESIAN_POINT('',(31.9,0.,-9.5));
#627=CARTESIAN_POINT('',(500.,0.,0.));
#628=CARTESIAN_POINT('',(27.5,0.,0.));
#629=CARTESIAN_POINT('',(27.5,0.,-9.5));
#630=CARTESIAN_POINT('',(-27.2,0.,0.));
#631=CARTESIAN_POINT('',(-27.5,0.,0.));
#632=CARTESIAN_POINT('',(-27.5,0.,-9.19999999999999));
#633=CARTESIAN_POINT('',(-27.5,9.19999999999999,0.));
#634=CARTESIAN_POINT('',(-27.5,0.,0.));
#635=CARTESIAN_POINT('',(-27.5,0.,-9.5));
#636=CARTESIAN_POINT('',(500.,0.,0.));
#637=CARTESIAN_POINT('',(21.5,0.,0.));
#638=CARTESIAN_POINT('',(27.5,0.,0.));
#639=CARTESIAN_POINT('',(27.5,15.612494995996,-12.5));
#640=CARTESIAN_POINT('',(27.5,15.612494995996,12.5));
#641=CARTESIAN_POINT('',(21.5,15.612494995996,-12.5));
#642=CARTESIAN_POINT('',(21.5,15.612494995996,-12.5));
#643=CARTESIAN_POINT('',(21.5,0.,0.));
#644=CARTESIAN_POINT('',(21.5,15.612494995996,12.5));
#645=CARTESIAN_POINT('',(21.5,15.612494995996,12.5));
#646=CARTESIAN_POINT('',(21.5,15.612494995996,12.5));
#647=CARTESIAN_POINT('',(27.5,15.612494995996,12.5));
#648=CARTESIAN_POINT('',(27.5,-15.612494995996,12.5));
#649=CARTESIAN_POINT('',(21.5,15.612494995996,12.5));
#650=CARTESIAN_POINT('',(21.5,-15.612494995996,12.5));
#651=CARTESIAN_POINT('',(21.5,-15.612494995996,12.5));
#652=CARTESIAN_POINT('',(21.5,0.,0.));
#653=CARTESIAN_POINT('',(27.5,0.,0.));
#654=CARTESIAN_POINT('',(27.5,-15.612494995996,-12.5));
#655=CARTESIAN_POINT('',(21.5,0.,0.));
#656=CARTESIAN_POINT('',(21.5,-15.612494995996,-12.5));
#657=CARTESIAN_POINT('',(21.5,-15.612494995996,-12.5));
#658=CARTESIAN_POINT('',(21.5,-15.612494995996,-12.5));
#659=CARTESIAN_POINT('',(27.5,-15.612494995996,-12.5));
#660=CARTESIAN_POINT('',(21.5,-15.612494995996,-12.5));
#661=CARTESIAN_POINT('',(21.5,0.,0.));
#662=CARTESIAN_POINT('',(21.5,-14.5,0.));
#663=CARTESIAN_POINT('',(21.5,-14.5,2.25));
#664=CARTESIAN_POINT('',(21.5,14.5,0.));
#665=CARTESIAN_POINT('',(21.5,14.5,-2.25));
#666=CARTESIAN_POINT('',(27.5,0.,0.));
#667=CARTESIAN_POINT('',(27.5,-14.5,0.));
#668=CARTESIAN_POINT('',(27.5,-14.5,3.75));
#669=CARTESIAN_POINT('',(27.5,14.5,0.));
#670=CARTESIAN_POINT('',(27.5,14.5,-3.75));
#671=CARTESIAN_POINT('',(27.5,14.5,0.));
#672=CARTESIAN_POINT('',(23.4,14.5,0.));
#673=CARTESIAN_POINT('',(23.4,14.5,-2.25));
#674=CARTESIAN_POINT('',(23.4,16.75,0.));
#675=CARTESIAN_POINT('',(23.4,14.5,0.));
#676=CARTESIAN_POINT('',(23.4,14.5,-3.75));
#677=CARTESIAN_POINT('',(27.5,14.5,0.));
#678=CARTESIAN_POINT('',(21.5,-14.5,0.));
#679=CARTESIAN_POINT('',(23.4,-14.5,0.));
#680=CARTESIAN_POINT('',(23.4,-14.5,3.75));
#681=CARTESIAN_POINT('',(23.4,-18.25,0.));
#682=CARTESIAN_POINT('',(23.4,-14.5,0.));
#683=CARTESIAN_POINT('',(23.4,-14.5,2.25));
#684=CARTESIAN_POINT('',(21.5,-14.5,0.));
#685=CARTESIAN_POINT('',(31.8,5.6,0.));
#686=CARTESIAN_POINT('',(31.8,0.,0.));
#687=CARTESIAN_POINT('',(31.8,0.,-5.29999999999999));
#688=CARTESIAN_POINT('',(31.8,0.,0.));
#689=CARTESIAN_POINT('',(31.8,0.,-5.6));
#690=CARTESIAN_POINT('',(500.,0.,0.));
#691=CARTESIAN_POINT('',(500.,0.,0.));
#692=CARTESIAN_POINT('',(31.45,0.,0.));
#693=CARTESIAN_POINT('',(31.45,0.,-5.6));
#694=CARTESIAN_POINT('',(31.45,5.,0.));
#695=CARTESIAN_POINT('',(31.45,0.,0.));
#696=CARTESIAN_POINT('',(31.45,0.,-5.));
#697=CARTESIAN_POINT('',(500.,0.,0.));
#698=CARTESIAN_POINT('',(-31.45,0.,0.));
#699=CARTESIAN_POINT('',(-31.45,0.,-5.));
#700=CARTESIAN_POINT('',(500.,0.,0.));
#701=CARTESIAN_POINT('',(-31.8000000000001,0.,0.));
#702=CARTESIAN_POINT('',(-31.8000000000001,0.,-5.3));
#703=CARTESIAN_POINT('',(-31.8,5.3,0.));
#704=CARTESIAN_POINT('',(-31.8000000000001,0.,0.));
#705=CARTESIAN_POINT('',(-31.8000000000001,0.,-5.6));
#706=CARTESIAN_POINT('',(500.,0.,0.));
#707=CARTESIAN_POINT('',(-31.45,0.,0.));
#708=CARTESIAN_POINT('',(-31.45,0.,-5.6));
#709=CARTESIAN_POINT('',(-31.45,5.6,0.));
#710=MECHANICAL_DESIGN_GEOMETRIC_PRESENTATION_REPRESENTATION('',(#400),
#711);
#711=(
GEOMETRIC_REPRESENTATION_CONTEXT(3)
GLOBAL_UNCERTAINTY_ASSIGNED_CONTEXT((#712))
GLOBAL_UNIT_ASSIGNED_CONTEXT((#715,#714,#713))
REPRESENTATION_CONTEXT('LMH10LUU-MX','TOP_LEVEL_ASSEMBLY_PART')
);
#712=UNCERTAINTY_MEASURE_WITH_UNIT(LENGTH_MEASURE(0.005),#715,
'DISTANCE_ACCURACY_VALUE','Maximum Tolerance applied to model');
#713=(
NAMED_UNIT(*)
SI_UNIT($,.STERADIAN.)
SOLID_ANGLE_UNIT()
);
#714=(
NAMED_UNIT(*)
PLANE_ANGLE_UNIT()
SI_UNIT($,.RADIAN.)
);
#715=(
LENGTH_UNIT()
NAMED_UNIT(*)
SI_UNIT(.MILLI.,.METRE.)
);
#716=PRODUCT_DEFINITION_SHAPE('','',#717);
#717=PRODUCT_DEFINITION('','',#719,#718);
#718=DESIGN_CONTEXT('',#725,'design');
#719=PRODUCT_DEFINITION_FORMATION_WITH_SPECIFIED_SOURCE('','',#721,
 .NOT_KNOWN.);
#720=PRODUCT_RELATED_PRODUCT_CATEGORY('','',(#721));
#721=PRODUCT('LMH10LUU-MX','LMH10LUU-MX','LMH10LUU-MX',(#723));
#722=PRODUCT_CATEGORY('','');
#723=MECHANICAL_CONTEXT('',#725,'mechanical');
#724=APPLICATION_PROTOCOL_DEFINITION('international standard',
'config_control_design',2010,#725);
#725=APPLICATION_CONTEXT(
'configuration controlled 3D designs of mechanical parts and assemblie
s');
ENDSEC;
END-ISO-10303-21;
