ISO-10303-21;
HEADER;
/* Generated by software containing ST-Developer
 * from STEP Tools, Inc. (www.steptools.com) 
 */
/* OPTION: using custom renumber hook */

FILE_DESCRIPTION(
/* description */ ('STEP AP203'),
/* implementation_level */ '2;1');

FILE_NAME(
/* name */ 'LMHP10UU-MX',
/* time_stamp */ '2022-08-25T03:35:56+02:00',
/* author */ ('License CC BY-ND 4.0'),
/* organization */ ('CADENAS'),
/* preprocessor_version */ 'ST-DEVELOPER v18.102',
/* originating_system */ 'PARTsolutions',
/* authorisation */ '  ');

FILE_SCHEMA (('CONFIG_CONTROL_DESIGN'));
ENDSEC;

DATA;
#10=PROPERTY_DEFINITION_REPRESENTATION(#14,#12);
#11=PROPERTY_DEFINITION_REPRESENTATION(#15,#13);
#12=REPRESENTATION('',(#16),#751);
#13=REPRESENTATION('',(#17),#751);
#14=PROPERTY_DEFINITION('pmi validation property','',#756);
#15=PROPERTY_DEFINITION('pmi validation property','',#756);
#16=VALUE_REPRESENTATION_ITEM('number of annotations',COUNT_MEASURE(0.));
#17=VALUE_REPRESENTATION_ITEM('number of views',COUNT_MEASURE(0.));
#18=SHAPE_REPRESENTATION_RELATIONSHIP('','',#432,#19);
#19=ADVANCED_BREP_SHAPE_REPRESENTATION('',(#430),#751);
#20=LINE('',#681,#28);
#21=LINE('',#685,#29);
#22=LINE('',#687,#30);
#23=LINE('',#689,#31);
#24=LINE('',#691,#32);
#25=LINE('',#697,#33);
#26=LINE('',#699,#34);
#27=LINE('',#700,#35);
#28=VECTOR('',#553,1000.);
#29=VECTOR('',#556,1000.);
#30=VECTOR('',#559,1000.);
#31=VECTOR('',#560,1000.);
#32=VECTOR('',#561,1000.);
#33=VECTOR('',#568,1000.);
#34=VECTOR('',#571,1000.);
#35=VECTOR('',#572,1000.);
#36=PLANE('',#440);
#37=PLANE('',#442);
#38=PLANE('',#449);
#39=PLANE('',#453);
#40=PLANE('',#461);
#41=PLANE('',#465);
#42=PLANE('',#466);
#43=PLANE('',#469);
#44=PLANE('',#474);
#45=PLANE('',#479);
#46=PLANE('',#482);
#47=PLANE('',#488);
#48=PLANE('',#494);
#49=PLANE('',#498);
#50=TOROIDAL_SURFACE('',#437,8.89999999999996,0.599999999999983);
#51=TOROIDAL_SURFACE('',#447,9.19999999999994,0.300000000000005);
#52=TOROIDAL_SURFACE('',#455,9.19999999999995,0.299999999999995);
#53=ORIENTED_EDGE('',*,*,#135,.T.);
#54=ORIENTED_EDGE('',*,*,#136,.T.);
#55=ORIENTED_EDGE('',*,*,#137,.T.);
#56=ORIENTED_EDGE('',*,*,#138,.F.);
#57=ORIENTED_EDGE('',*,*,#139,.T.);
#58=ORIENTED_EDGE('',*,*,#137,.F.);
#59=ORIENTED_EDGE('',*,*,#140,.T.);
#60=ORIENTED_EDGE('',*,*,#141,.F.);
#61=ORIENTED_EDGE('',*,*,#142,.T.);
#62=ORIENTED_EDGE('',*,*,#140,.F.);
#63=ORIENTED_EDGE('',*,*,#143,.T.);
#64=ORIENTED_EDGE('',*,*,#142,.F.);
#65=ORIENTED_EDGE('',*,*,#144,.T.);
#66=ORIENTED_EDGE('',*,*,#143,.F.);
#67=ORIENTED_EDGE('',*,*,#145,.F.);
#68=ORIENTED_EDGE('',*,*,#144,.F.);
#69=ORIENTED_EDGE('',*,*,#146,.T.);
#70=ORIENTED_EDGE('',*,*,#135,.F.);
#71=ORIENTED_EDGE('',*,*,#147,.T.);
#72=ORIENTED_EDGE('',*,*,#146,.F.);
#73=ORIENTED_EDGE('',*,*,#138,.T.);
#74=ORIENTED_EDGE('',*,*,#147,.F.);
#75=ORIENTED_EDGE('',*,*,#148,.F.);
#76=ORIENTED_EDGE('',*,*,#149,.F.);
#77=ORIENTED_EDGE('',*,*,#150,.T.);
#78=ORIENTED_EDGE('',*,*,#151,.T.);
#79=ORIENTED_EDGE('',*,*,#152,.F.);
#80=ORIENTED_EDGE('',*,*,#151,.F.);
#81=ORIENTED_EDGE('',*,*,#153,.T.);
#82=ORIENTED_EDGE('',*,*,#154,.T.);
#83=ORIENTED_EDGE('',*,*,#155,.F.);
#84=ORIENTED_EDGE('',*,*,#154,.F.);
#85=ORIENTED_EDGE('',*,*,#156,.T.);
#86=ORIENTED_EDGE('',*,*,#157,.T.);
#87=ORIENTED_EDGE('',*,*,#158,.F.);
#88=ORIENTED_EDGE('',*,*,#157,.F.);
#89=ORIENTED_EDGE('',*,*,#159,.T.);
#90=ORIENTED_EDGE('',*,*,#149,.T.);
#91=ORIENTED_EDGE('',*,*,#160,.F.);
#92=ORIENTED_EDGE('',*,*,#161,.T.);
#93=ORIENTED_EDGE('',*,*,#136,.F.);
#94=ORIENTED_EDGE('',*,*,#150,.F.);
#95=ORIENTED_EDGE('',*,*,#159,.F.);
#96=ORIENTED_EDGE('',*,*,#156,.F.);
#97=ORIENTED_EDGE('',*,*,#153,.F.);
#98=ORIENTED_EDGE('',*,*,#162,.T.);
#99=ORIENTED_EDGE('',*,*,#163,.F.);
#100=ORIENTED_EDGE('',*,*,#145,.T.);
#101=ORIENTED_EDGE('',*,*,#148,.T.);
#102=ORIENTED_EDGE('',*,*,#152,.T.);
#103=ORIENTED_EDGE('',*,*,#155,.T.);
#104=ORIENTED_EDGE('',*,*,#158,.T.);
#105=ORIENTED_EDGE('',*,*,#164,.T.);
#106=ORIENTED_EDGE('',*,*,#161,.F.);
#107=ORIENTED_EDGE('',*,*,#165,.T.);
#108=ORIENTED_EDGE('',*,*,#164,.F.);
#109=ORIENTED_EDGE('',*,*,#163,.T.);
#110=ORIENTED_EDGE('',*,*,#165,.F.);
#111=ORIENTED_EDGE('',*,*,#166,.T.);
#112=ORIENTED_EDGE('',*,*,#162,.F.);
#113=ORIENTED_EDGE('',*,*,#167,.T.);
#114=ORIENTED_EDGE('',*,*,#166,.F.);
#115=ORIENTED_EDGE('',*,*,#160,.T.);
#116=ORIENTED_EDGE('',*,*,#167,.F.);
#117=ORIENTED_EDGE('',*,*,#168,.T.);
#118=ORIENTED_EDGE('',*,*,#169,.F.);
#119=ORIENTED_EDGE('',*,*,#141,.T.);
#120=ORIENTED_EDGE('',*,*,#168,.F.);
#121=ORIENTED_EDGE('',*,*,#169,.T.);
#122=ORIENTED_EDGE('',*,*,#170,.F.);
#123=ORIENTED_EDGE('',*,*,#170,.T.);
#124=ORIENTED_EDGE('',*,*,#171,.F.);
#125=ORIENTED_EDGE('',*,*,#171,.T.);
#126=ORIENTED_EDGE('',*,*,#172,.F.);
#127=ORIENTED_EDGE('',*,*,#173,.T.);
#128=ORIENTED_EDGE('',*,*,#139,.F.);
#129=ORIENTED_EDGE('',*,*,#174,.T.);
#130=ORIENTED_EDGE('',*,*,#173,.F.);
#131=ORIENTED_EDGE('',*,*,#175,.T.);
#132=ORIENTED_EDGE('',*,*,#174,.F.);
#133=ORIENTED_EDGE('',*,*,#172,.T.);
#134=ORIENTED_EDGE('',*,*,#175,.F.);
#135=EDGE_CURVE('',#176,#176,#213,.T.);
#136=EDGE_CURVE('',#177,#177,#214,.F.);
#137=EDGE_CURVE('',#178,#178,#215,.T.);
#138=EDGE_CURVE('',#179,#179,#216,.T.);
#139=EDGE_CURVE('',#180,#180,#217,.T.);
#140=EDGE_CURVE('',#181,#181,#218,.T.);
#141=EDGE_CURVE('',#182,#182,#219,.T.);
#142=EDGE_CURVE('',#183,#183,#220,.T.);
#143=EDGE_CURVE('',#184,#184,#221,.T.);
#144=EDGE_CURVE('',#185,#185,#222,.T.);
#145=EDGE_CURVE('',#186,#186,#223,.F.);
#146=EDGE_CURVE('',#187,#187,#224,.T.);
#147=EDGE_CURVE('',#188,#188,#225,.T.);
#148=EDGE_CURVE('',#189,#190,#226,.T.);
#149=EDGE_CURVE('',#191,#189,#20,.T.);
#150=EDGE_CURVE('',#191,#192,#227,.T.);
#151=EDGE_CURVE('',#192,#190,#21,.T.);
#152=EDGE_CURVE('',#190,#193,#22,.T.);
#153=EDGE_CURVE('',#192,#194,#23,.T.);
#154=EDGE_CURVE('',#194,#193,#24,.T.);
#155=EDGE_CURVE('',#193,#195,#228,.T.);
#156=EDGE_CURVE('',#194,#196,#229,.T.);
#157=EDGE_CURVE('',#196,#195,#25,.T.);
#158=EDGE_CURVE('',#195,#189,#26,.T.);
#159=EDGE_CURVE('',#196,#191,#27,.T.);
#160=EDGE_CURVE('',#197,#197,#230,.T.);
#161=EDGE_CURVE('',#198,#198,#231,.T.);
#162=EDGE_CURVE('',#199,#199,#232,.T.);
#163=EDGE_CURVE('',#200,#200,#233,.T.);
#164=EDGE_CURVE('',#201,#201,#234,.T.);
#165=EDGE_CURVE('',#202,#202,#235,.T.);
#166=EDGE_CURVE('',#203,#203,#236,.T.);
#167=EDGE_CURVE('',#204,#204,#237,.T.);
#168=EDGE_CURVE('',#205,#205,#238,.T.);
#169=EDGE_CURVE('',#206,#206,#239,.T.);
#170=EDGE_CURVE('',#207,#207,#240,.T.);
#171=EDGE_CURVE('',#208,#208,#241,.T.);
#172=EDGE_CURVE('',#209,#209,#242,.T.);
#173=EDGE_CURVE('',#210,#210,#243,.T.);
#174=EDGE_CURVE('',#211,#211,#244,.T.);
#175=EDGE_CURVE('',#212,#212,#245,.T.);
#176=VERTEX_POINT('',#642);
#177=VERTEX_POINT('',#644);
#178=VERTEX_POINT('',#647);
#179=VERTEX_POINT('',#649);
#180=VERTEX_POINT('',#652);
#181=VERTEX_POINT('',#655);
#182=VERTEX_POINT('',#657);
#183=VERTEX_POINT('',#660);
#184=VERTEX_POINT('',#663);
#185=VERTEX_POINT('',#666);
#186=VERTEX_POINT('',#669);
#187=VERTEX_POINT('',#672);
#188=VERTEX_POINT('',#675);
#189=VERTEX_POINT('',#679);
#190=VERTEX_POINT('',#680);
#191=VERTEX_POINT('',#682);
#192=VERTEX_POINT('',#684);
#193=VERTEX_POINT('',#688);
#194=VERTEX_POINT('',#690);
#195=VERTEX_POINT('',#694);
#196=VERTEX_POINT('',#696);
#197=VERTEX_POINT('',#703);
#198=VERTEX_POINT('',#705);
#199=VERTEX_POINT('',#708);
#200=VERTEX_POINT('',#710);
#201=VERTEX_POINT('',#713);
#202=VERTEX_POINT('',#716);
#203=VERTEX_POINT('',#720);
#204=VERTEX_POINT('',#723);
#205=VERTEX_POINT('',#727);
#206=VERTEX_POINT('',#729);
#207=VERTEX_POINT('',#733);
#208=VERTEX_POINT('',#736);
#209=VERTEX_POINT('',#739);
#210=VERTEX_POINT('',#742);
#211=VERTEX_POINT('',#745);
#212=VERTEX_POINT('',#748);
#213=CIRCLE('',#435,9.49999999999994);
#214=CIRCLE('',#436,9.49999999999995);
#215=CIRCLE('',#438,8.89999999999995);
#216=CIRCLE('',#439,9.49999999999994);
#217=CIRCLE('',#441,5.3);
#218=CIRCLE('',#443,9.49999999999995);
#219=CIRCLE('',#444,5.29999999999999);
#220=CIRCLE('',#446,9.49999999999995);
#221=CIRCLE('',#448,9.19999999999987);
#222=CIRCLE('',#450,9.49999999999995);
#223=CIRCLE('',#452,9.49999999999995);
#224=CIRCLE('',#454,9.19999999999994);
#225=CIRCLE('',#456,9.49999999999994);
#226=CIRCLE('',#459,20.);
#227=CIRCLE('',#460,20.);
#228=CIRCLE('',#463,20.);
#229=CIRCLE('',#464,20.);
#230=CIRCLE('',#467,2.25);
#231=CIRCLE('',#468,2.25);
#232=CIRCLE('',#470,3.75);
#233=CIRCLE('',#471,3.75);
#234=CIRCLE('',#473,2.25);
#235=CIRCLE('',#475,3.75);
#236=CIRCLE('',#478,3.75);
#237=CIRCLE('',#480,2.25);
#238=CIRCLE('',#483,5.29999999999999);
#239=CIRCLE('',#484,5.6);
#240=CIRCLE('',#487,5.6);
#241=CIRCLE('',#489,5.);
#242=CIRCLE('',#491,5.);
#243=CIRCLE('',#493,5.3);
#244=CIRCLE('',#495,5.6);
#245=CIRCLE('',#497,5.6);
#246=EDGE_LOOP('',(#53));
#247=EDGE_LOOP('',(#54));
#248=EDGE_LOOP('',(#55));
#249=EDGE_LOOP('',(#56));
#250=EDGE_LOOP('',(#57));
#251=EDGE_LOOP('',(#58));
#252=EDGE_LOOP('',(#59));
#253=EDGE_LOOP('',(#60));
#254=EDGE_LOOP('',(#61));
#255=EDGE_LOOP('',(#62));
#256=EDGE_LOOP('',(#63));
#257=EDGE_LOOP('',(#64));
#258=EDGE_LOOP('',(#65));
#259=EDGE_LOOP('',(#66));
#260=EDGE_LOOP('',(#67));
#261=EDGE_LOOP('',(#68));
#262=EDGE_LOOP('',(#69));
#263=EDGE_LOOP('',(#70));
#264=EDGE_LOOP('',(#71));
#265=EDGE_LOOP('',(#72));
#266=EDGE_LOOP('',(#73));
#267=EDGE_LOOP('',(#74));
#268=EDGE_LOOP('',(#75,#76,#77,#78));
#269=EDGE_LOOP('',(#79,#80,#81,#82));
#270=EDGE_LOOP('',(#83,#84,#85,#86));
#271=EDGE_LOOP('',(#87,#88,#89,#90));
#272=EDGE_LOOP('',(#91));
#273=EDGE_LOOP('',(#92));
#274=EDGE_LOOP('',(#93));
#275=EDGE_LOOP('',(#94,#95,#96,#97));
#276=EDGE_LOOP('',(#98));
#277=EDGE_LOOP('',(#99));
#278=EDGE_LOOP('',(#100));
#279=EDGE_LOOP('',(#101,#102,#103,#104));
#280=EDGE_LOOP('',(#105));
#281=EDGE_LOOP('',(#106));
#282=EDGE_LOOP('',(#107));
#283=EDGE_LOOP('',(#108));
#284=EDGE_LOOP('',(#109));
#285=EDGE_LOOP('',(#110));
#286=EDGE_LOOP('',(#111));
#287=EDGE_LOOP('',(#112));
#288=EDGE_LOOP('',(#113));
#289=EDGE_LOOP('',(#114));
#290=EDGE_LOOP('',(#115));
#291=EDGE_LOOP('',(#116));
#292=EDGE_LOOP('',(#117));
#293=EDGE_LOOP('',(#118));
#294=EDGE_LOOP('',(#119));
#295=EDGE_LOOP('',(#120));
#296=EDGE_LOOP('',(#121));
#297=EDGE_LOOP('',(#122));
#298=EDGE_LOOP('',(#123));
#299=EDGE_LOOP('',(#124));
#300=EDGE_LOOP('',(#125));
#301=EDGE_LOOP('',(#126));
#302=EDGE_LOOP('',(#127));
#303=EDGE_LOOP('',(#128));
#304=EDGE_LOOP('',(#129));
#305=EDGE_LOOP('',(#130));
#306=EDGE_LOOP('',(#131));
#307=EDGE_LOOP('',(#132));
#308=EDGE_LOOP('',(#133));
#309=EDGE_LOOP('',(#134));
#310=FACE_BOUND('',#246,.T.);
#311=FACE_BOUND('',#247,.T.);
#312=FACE_BOUND('',#248,.T.);
#313=FACE_BOUND('',#249,.T.);
#314=FACE_BOUND('',#250,.T.);
#315=FACE_BOUND('',#251,.T.);
#316=FACE_BOUND('',#252,.T.);
#317=FACE_BOUND('',#253,.T.);
#318=FACE_BOUND('',#254,.T.);
#319=FACE_BOUND('',#255,.T.);
#320=FACE_BOUND('',#256,.T.);
#321=FACE_BOUND('',#257,.T.);
#322=FACE_BOUND('',#258,.T.);
#323=FACE_BOUND('',#259,.T.);
#324=FACE_BOUND('',#260,.T.);
#325=FACE_BOUND('',#261,.T.);
#326=FACE_BOUND('',#262,.T.);
#327=FACE_BOUND('',#263,.T.);
#328=FACE_BOUND('',#264,.T.);
#329=FACE_BOUND('',#265,.T.);
#330=FACE_BOUND('',#266,.T.);
#331=FACE_BOUND('',#267,.T.);
#332=FACE_BOUND('',#268,.T.);
#333=FACE_BOUND('',#269,.T.);
#334=FACE_BOUND('',#270,.T.);
#335=FACE_BOUND('',#271,.T.);
#336=FACE_BOUND('',#272,.T.);
#337=FACE_BOUND('',#273,.T.);
#338=FACE_BOUND('',#274,.T.);
#339=FACE_BOUND('',#275,.T.);
#340=FACE_BOUND('',#276,.T.);
#341=FACE_BOUND('',#277,.T.);
#342=FACE_BOUND('',#278,.T.);
#343=FACE_BOUND('',#279,.T.);
#344=FACE_BOUND('',#280,.T.);
#345=FACE_BOUND('',#281,.T.);
#346=FACE_BOUND('',#282,.T.);
#347=FACE_BOUND('',#283,.T.);
#348=FACE_BOUND('',#284,.T.);
#349=FACE_BOUND('',#285,.T.);
#350=FACE_BOUND('',#286,.T.);
#351=FACE_BOUND('',#287,.T.);
#352=FACE_BOUND('',#288,.T.);
#353=FACE_BOUND('',#289,.T.);
#354=FACE_BOUND('',#290,.T.);
#355=FACE_BOUND('',#291,.T.);
#356=FACE_BOUND('',#292,.T.);
#357=FACE_BOUND('',#293,.T.);
#358=FACE_BOUND('',#294,.T.);
#359=FACE_BOUND('',#295,.T.);
#360=FACE_BOUND('',#296,.T.);
#361=FACE_BOUND('',#297,.T.);
#362=FACE_BOUND('',#298,.T.);
#363=FACE_BOUND('',#299,.T.);
#364=FACE_BOUND('',#300,.T.);
#365=FACE_BOUND('',#301,.T.);
#366=FACE_BOUND('',#302,.T.);
#367=FACE_BOUND('',#303,.T.);
#368=FACE_BOUND('',#304,.T.);
#369=FACE_BOUND('',#305,.T.);
#370=FACE_BOUND('',#306,.T.);
#371=FACE_BOUND('',#307,.T.);
#372=FACE_BOUND('',#308,.T.);
#373=FACE_BOUND('',#309,.T.);
#374=CYLINDRICAL_SURFACE('',#434,9.49999999999995);
#375=CYLINDRICAL_SURFACE('',#445,9.49999999999995);
#376=CYLINDRICAL_SURFACE('',#451,9.49999999999995);
#377=CYLINDRICAL_SURFACE('',#457,9.49999999999994);
#378=CYLINDRICAL_SURFACE('',#458,20.);
#379=CYLINDRICAL_SURFACE('',#462,20.);
#380=CYLINDRICAL_SURFACE('',#472,2.25);
#381=CYLINDRICAL_SURFACE('',#476,3.75);
#382=CYLINDRICAL_SURFACE('',#477,3.75);
#383=CYLINDRICAL_SURFACE('',#481,2.25);
#384=CYLINDRICAL_SURFACE('',#485,5.29999999999999);
#385=CYLINDRICAL_SURFACE('',#486,5.6);
#386=CYLINDRICAL_SURFACE('',#490,5.);
#387=CYLINDRICAL_SURFACE('',#492,5.3);
#388=CYLINDRICAL_SURFACE('',#496,5.6);
#389=ADVANCED_FACE('',(#310,#311),#374,.T.);
#390=ADVANCED_FACE('',(#312,#313),#50,.T.);
#391=ADVANCED_FACE('',(#314,#315),#36,.T.);
#392=ADVANCED_FACE('',(#316,#317),#37,.T.);
#393=ADVANCED_FACE('',(#318,#319),#375,.T.);
#394=ADVANCED_FACE('',(#320,#321),#51,.T.);
#395=ADVANCED_FACE('',(#322,#323),#38,.T.);
#396=ADVANCED_FACE('',(#324,#325),#376,.T.);
#397=ADVANCED_FACE('',(#326,#327),#39,.T.);
#398=ADVANCED_FACE('',(#328,#329),#52,.T.);
#399=ADVANCED_FACE('',(#330,#331),#377,.T.);
#400=ADVANCED_FACE('',(#332),#378,.T.);
#401=ADVANCED_FACE('',(#333),#40,.T.);
#402=ADVANCED_FACE('',(#334),#379,.T.);
#403=ADVANCED_FACE('',(#335),#41,.T.);
#404=ADVANCED_FACE('',(#336,#337,#338,#339),#42,.F.);
#405=ADVANCED_FACE('',(#340,#341,#342,#343),#43,.T.);
#406=ADVANCED_FACE('',(#344,#345),#380,.F.);
#407=ADVANCED_FACE('',(#346,#347),#44,.T.);
#408=ADVANCED_FACE('',(#348,#349),#381,.F.);
#409=ADVANCED_FACE('',(#350,#351),#382,.F.);
#410=ADVANCED_FACE('',(#352,#353),#45,.T.);
#411=ADVANCED_FACE('',(#354,#355),#383,.F.);
#412=ADVANCED_FACE('',(#356,#357),#46,.T.);
#413=ADVANCED_FACE('',(#358,#359),#384,.F.);
#414=ADVANCED_FACE('',(#360,#361),#385,.F.);
#415=ADVANCED_FACE('',(#362,#363),#47,.T.);
#416=ADVANCED_FACE('',(#364,#365),#386,.F.);
#417=ADVANCED_FACE('',(#366,#367),#387,.F.);
#418=ADVANCED_FACE('',(#368,#369),#48,.T.);
#419=ADVANCED_FACE('',(#370,#371),#388,.F.);
#420=ADVANCED_FACE('',(#372,#373),#49,.T.);
#421=CLOSED_SHELL('',(#389,#390,#391,#392,#393,#394,#395,#396,#397,#398,
#399,#400,#401,#402,#403,#404,#405,#406,#407,#408,#409,#410,#411,#412,#413,
#414,#415,#416,#417,#418,#419,#420));
#422=STYLED_ITEM('',(#423),#430);
#423=PRESENTATION_STYLE_ASSIGNMENT((#424));
#424=SURFACE_STYLE_USAGE(.BOTH.,#425);
#425=SURFACE_SIDE_STYLE('',(#426));
#426=SURFACE_STYLE_FILL_AREA(#427);
#427=FILL_AREA_STYLE('',(#428));
#428=FILL_AREA_STYLE_COLOUR('',#429);
#429=COLOUR_RGB('',0.689999997615814,0.689999997615814,0.689999997615814);
#430=MANIFOLD_SOLID_BREP('LMHP10UU-MX',#421);
#431=SHAPE_DEFINITION_REPRESENTATION(#756,#432);
#432=SHAPE_REPRESENTATION('LMHP10UU-MX',(#433),#751);
#433=AXIS2_PLACEMENT_3D('',#639,#499,#500);
#434=AXIS2_PLACEMENT_3D('',#640,#501,#502);
#435=AXIS2_PLACEMENT_3D('',#641,#503,#504);
#436=AXIS2_PLACEMENT_3D('',#643,#505,#506);
#437=AXIS2_PLACEMENT_3D('',#645,#507,#508);
#438=AXIS2_PLACEMENT_3D('',#646,#509,#510);
#439=AXIS2_PLACEMENT_3D('',#648,#511,#512);
#440=AXIS2_PLACEMENT_3D('',#650,#513,#514);
#441=AXIS2_PLACEMENT_3D('',#651,#515,#516);
#442=AXIS2_PLACEMENT_3D('',#653,#517,#518);
#443=AXIS2_PLACEMENT_3D('',#654,#519,#520);
#444=AXIS2_PLACEMENT_3D('',#656,#521,#522);
#445=AXIS2_PLACEMENT_3D('',#658,#523,#524);
#446=AXIS2_PLACEMENT_3D('',#659,#525,#526);
#447=AXIS2_PLACEMENT_3D('',#661,#527,#528);
#448=AXIS2_PLACEMENT_3D('',#662,#529,#530);
#449=AXIS2_PLACEMENT_3D('',#664,#531,#532);
#450=AXIS2_PLACEMENT_3D('',#665,#533,#534);
#451=AXIS2_PLACEMENT_3D('',#667,#535,#536);
#452=AXIS2_PLACEMENT_3D('',#668,#537,#538);
#453=AXIS2_PLACEMENT_3D('',#670,#539,#540);
#454=AXIS2_PLACEMENT_3D('',#671,#541,#542);
#455=AXIS2_PLACEMENT_3D('',#673,#543,#544);
#456=AXIS2_PLACEMENT_3D('',#674,#545,#546);
#457=AXIS2_PLACEMENT_3D('',#676,#547,#548);
#458=AXIS2_PLACEMENT_3D('',#677,#549,#550);
#459=AXIS2_PLACEMENT_3D('',#678,#551,#552);
#460=AXIS2_PLACEMENT_3D('',#683,#554,#555);
#461=AXIS2_PLACEMENT_3D('',#686,#557,#558);
#462=AXIS2_PLACEMENT_3D('',#692,#562,#563);
#463=AXIS2_PLACEMENT_3D('',#693,#564,#565);
#464=AXIS2_PLACEMENT_3D('',#695,#566,#567);
#465=AXIS2_PLACEMENT_3D('',#698,#569,#570);
#466=AXIS2_PLACEMENT_3D('',#701,#573,#574);
#467=AXIS2_PLACEMENT_3D('',#702,#575,#576);
#468=AXIS2_PLACEMENT_3D('',#704,#577,#578);
#469=AXIS2_PLACEMENT_3D('',#706,#579,#580);
#470=AXIS2_PLACEMENT_3D('',#707,#581,#582);
#471=AXIS2_PLACEMENT_3D('',#709,#583,#584);
#472=AXIS2_PLACEMENT_3D('',#711,#585,#586);
#473=AXIS2_PLACEMENT_3D('',#712,#587,#588);
#474=AXIS2_PLACEMENT_3D('',#714,#589,#590);
#475=AXIS2_PLACEMENT_3D('',#715,#591,#592);
#476=AXIS2_PLACEMENT_3D('',#717,#593,#594);
#477=AXIS2_PLACEMENT_3D('',#718,#595,#596);
#478=AXIS2_PLACEMENT_3D('',#719,#597,#598);
#479=AXIS2_PLACEMENT_3D('',#721,#599,#600);
#480=AXIS2_PLACEMENT_3D('',#722,#601,#602);
#481=AXIS2_PLACEMENT_3D('',#724,#603,#604);
#482=AXIS2_PLACEMENT_3D('',#725,#605,#606);
#483=AXIS2_PLACEMENT_3D('',#726,#607,#608);
#484=AXIS2_PLACEMENT_3D('',#728,#609,#610);
#485=AXIS2_PLACEMENT_3D('',#730,#611,#612);
#486=AXIS2_PLACEMENT_3D('',#731,#613,#614);
#487=AXIS2_PLACEMENT_3D('',#732,#615,#616);
#488=AXIS2_PLACEMENT_3D('',#734,#617,#618);
#489=AXIS2_PLACEMENT_3D('',#735,#619,#620);
#490=AXIS2_PLACEMENT_3D('',#737,#621,#622);
#491=AXIS2_PLACEMENT_3D('',#738,#623,#624);
#492=AXIS2_PLACEMENT_3D('',#740,#625,#626);
#493=AXIS2_PLACEMENT_3D('',#741,#627,#628);
#494=AXIS2_PLACEMENT_3D('',#743,#629,#630);
#495=AXIS2_PLACEMENT_3D('',#744,#631,#632);
#496=AXIS2_PLACEMENT_3D('',#746,#633,#634);
#497=AXIS2_PLACEMENT_3D('',#747,#635,#636);
#498=AXIS2_PLACEMENT_3D('',#749,#637,#638);
#499=DIRECTION('',(0.,0.,1.));
#500=DIRECTION('',(1.,0.,0.));
#501=DIRECTION('',(1.,0.,0.));
#502=DIRECTION('',(0.,0.,-1.));
#503=DIRECTION('',(1.,0.,0.));
#504=DIRECTION('',(0.,0.,-1.));
#505=DIRECTION('',(1.,0.,0.));
#506=DIRECTION('',(0.,0.,-1.));
#507=DIRECTION('',(1.,0.,0.));
#508=DIRECTION('',(0.,0.,-1.));
#509=DIRECTION('',(1.,0.,0.));
#510=DIRECTION('',(0.,0.,-1.));
#511=DIRECTION('',(1.,0.,0.));
#512=DIRECTION('',(0.,0.,-1.));
#513=DIRECTION('',(-1.,0.,0.));
#514=DIRECTION('',(0.,0.,1.));
#515=DIRECTION('',(1.,0.,0.));
#516=DIRECTION('',(0.,0.,-1.));
#517=DIRECTION('',(1.,0.,0.));
#518=DIRECTION('',(0.,0.,-1.));
#519=DIRECTION('',(1.,0.,0.));
#520=DIRECTION('',(0.,0.,-1.));
#521=DIRECTION('',(1.,0.,0.));
#522=DIRECTION('',(0.,0.,-1.));
#523=DIRECTION('',(1.,0.,0.));
#524=DIRECTION('',(0.,0.,-1.));
#525=DIRECTION('',(1.,0.,0.));
#526=DIRECTION('',(0.,0.,-1.));
#527=DIRECTION('',(1.,0.,0.));
#528=DIRECTION('',(0.,0.,-1.));
#529=DIRECTION('',(1.,0.,0.));
#530=DIRECTION('',(0.,0.,-1.));
#531=DIRECTION('',(1.,0.,0.));
#532=DIRECTION('',(0.,0.,-1.));
#533=DIRECTION('',(1.,0.,0.));
#534=DIRECTION('',(0.,0.,-1.));
#535=DIRECTION('',(1.,0.,0.));
#536=DIRECTION('',(0.,0.,-1.));
#537=DIRECTION('',(1.,0.,0.));
#538=DIRECTION('',(0.,0.,-1.));
#539=DIRECTION('',(-1.,0.,0.));
#540=DIRECTION('',(0.,0.,1.));
#541=DIRECTION('',(1.,0.,0.));
#542=DIRECTION('',(0.,0.,-1.));
#543=DIRECTION('',(1.,0.,0.));
#544=DIRECTION('',(0.,0.,-1.));
#545=DIRECTION('',(1.,0.,0.));
#546=DIRECTION('',(0.,0.,-1.));
#547=DIRECTION('',(1.,0.,0.));
#548=DIRECTION('',(0.,0.,-1.));
#549=DIRECTION('',(1.,0.,0.));
#550=DIRECTION('',(0.,0.,-1.));
#551=DIRECTION('',(1.,0.,0.));
#552=DIRECTION('',(0.,0.,-1.));
#553=DIRECTION('',(1.,0.,0.));
#554=DIRECTION('',(1.,0.,0.));
#555=DIRECTION('',(0.,0.,-1.));
#556=DIRECTION('',(1.,0.,0.));
#557=DIRECTION('',(0.,0.,1.));
#558=DIRECTION('',(1.,0.,0.));
#559=DIRECTION('',(0.,-1.,0.));
#560=DIRECTION('',(0.,-1.,0.));
#561=DIRECTION('',(1.,0.,0.));
#562=DIRECTION('',(1.,0.,0.));
#563=DIRECTION('',(0.,0.,-1.));
#564=DIRECTION('',(1.,0.,0.));
#565=DIRECTION('',(0.,0.,-1.));
#566=DIRECTION('',(1.,0.,0.));
#567=DIRECTION('',(0.,0.,-1.));
#568=DIRECTION('',(1.,0.,0.));
#569=DIRECTION('',(0.,0.,-1.));
#570=DIRECTION('',(-1.,0.,0.));
#571=DIRECTION('',(0.,1.,0.));
#572=DIRECTION('',(0.,1.,0.));
#573=DIRECTION('',(1.,0.,0.));
#574=DIRECTION('',(0.,0.,-1.));
#575=DIRECTION('',(-1.,0.,0.));
#576=DIRECTION('',(0.,0.,1.));
#577=DIRECTION('',(1.,0.,0.));
#578=DIRECTION('',(0.,0.,-1.));
#579=DIRECTION('',(1.,0.,0.));
#580=DIRECTION('',(0.,0.,-1.));
#581=DIRECTION('',(-1.,0.,0.));
#582=DIRECTION('',(0.,0.,1.));
#583=DIRECTION('',(1.,0.,0.));
#584=DIRECTION('',(0.,0.,-1.));
#585=DIRECTION('',(1.,0.,0.));
#586=DIRECTION('',(0.,0.,-1.));
#587=DIRECTION('',(1.,0.,0.));
#588=DIRECTION('',(0.,0.,-1.));
#589=DIRECTION('',(1.,0.,0.));
#590=DIRECTION('',(0.,0.,-1.));
#591=DIRECTION('',(1.,0.,0.));
#592=DIRECTION('',(0.,0.,-1.));
#593=DIRECTION('',(1.,0.,0.));
#594=DIRECTION('',(0.,0.,-1.));
#595=DIRECTION('',(-1.,0.,0.));
#596=DIRECTION('',(0.,0.,1.));
#597=DIRECTION('',(-1.,0.,0.));
#598=DIRECTION('',(0.,0.,1.));
#599=DIRECTION('',(1.,0.,0.));
#600=DIRECTION('',(0.,0.,-1.));
#601=DIRECTION('',(-1.,0.,0.));
#602=DIRECTION('',(0.,0.,1.));
#603=DIRECTION('',(-1.,0.,0.));
#604=DIRECTION('',(0.,0.,1.));
#605=DIRECTION('',(-1.,0.,0.));
#606=DIRECTION('',(0.,0.,1.));
#607=DIRECTION('',(1.,0.,0.));
#608=DIRECTION('',(0.,0.,-1.));
#609=DIRECTION('',(1.,0.,0.));
#610=DIRECTION('',(0.,0.,-1.));
#611=DIRECTION('',(1.,0.,0.));
#612=DIRECTION('',(0.,0.,-1.));
#613=DIRECTION('',(1.,0.,0.));
#614=DIRECTION('',(0.,0.,-1.));
#615=DIRECTION('',(1.,0.,0.));
#616=DIRECTION('',(0.,0.,-1.));
#617=DIRECTION('',(1.,0.,0.));
#618=DIRECTION('',(0.,0.,-1.));
#619=DIRECTION('',(1.,0.,0.));
#620=DIRECTION('',(0.,0.,-1.));
#621=DIRECTION('',(1.,0.,0.));
#622=DIRECTION('',(0.,0.,-1.));
#623=DIRECTION('',(1.,0.,0.));
#624=DIRECTION('',(0.,0.,-1.));
#625=DIRECTION('',(1.,0.,0.));
#626=DIRECTION('',(0.,0.,-1.));
#627=DIRECTION('',(1.,0.,0.));
#628=DIRECTION('',(0.,0.,-1.));
#629=DIRECTION('',(1.,0.,0.));
#630=DIRECTION('',(0.,0.,-1.));
#631=DIRECTION('',(1.,0.,0.));
#632=DIRECTION('',(0.,0.,-1.));
#633=DIRECTION('',(1.,0.,0.));
#634=DIRECTION('',(0.,0.,-1.));
#635=DIRECTION('',(1.,0.,0.));
#636=DIRECTION('',(0.,0.,-1.));
#637=DIRECTION('',(-1.,0.,0.));
#638=DIRECTION('',(0.,0.,1.));
#639=CARTESIAN_POINT('',(0.,0.,0.));
#640=CARTESIAN_POINT('',(500.,0.,0.));
#641=CARTESIAN_POINT('',(-34.,0.,0.));
#642=CARTESIAN_POINT('',(-34.,0.,-9.49999999999994));
#643=CARTESIAN_POINT('',(-28.,0.,0.));
#644=CARTESIAN_POINT('',(-28.,0.,-9.49999999999995));
#645=CARTESIAN_POINT('',(-38.4,0.,0.));
#646=CARTESIAN_POINT('',(-39.,0.,0.));
#647=CARTESIAN_POINT('',(-39.,0.,-8.89999999999995));
#648=CARTESIAN_POINT('',(-38.4,0.,0.));
#649=CARTESIAN_POINT('',(-38.4,0.,-9.49999999999994));
#650=CARTESIAN_POINT('',(-39.,8.89999999999995,0.));
#651=CARTESIAN_POINT('',(-39.,0.,0.));
#652=CARTESIAN_POINT('',(-39.,0.,-5.3));
#653=CARTESIAN_POINT('',(0.,5.,0.));
#654=CARTESIAN_POINT('',(0.,0.,0.));
#655=CARTESIAN_POINT('',(0.,0.,-9.49999999999995));
#656=CARTESIAN_POINT('',(0.,0.,0.));
#657=CARTESIAN_POINT('',(0.,0.,-5.29999999999999));
#658=CARTESIAN_POINT('',(500.,0.,0.));
#659=CARTESIAN_POINT('',(-4.70000000000004,0.,0.));
#660=CARTESIAN_POINT('',(-4.70000000000004,0.,-9.49999999999995));
#661=CARTESIAN_POINT('',(-4.69999999999999,0.,0.));
#662=CARTESIAN_POINT('',(-5.,0.,0.));
#663=CARTESIAN_POINT('',(-5.,0.,-9.19999999999987));
#664=CARTESIAN_POINT('',(-5.,9.19999999999987,0.));
#665=CARTESIAN_POINT('',(-5.,0.,0.));
#666=CARTESIAN_POINT('',(-5.,0.,-9.49999999999995));
#667=CARTESIAN_POINT('',(500.,0.,0.));
#668=CARTESIAN_POINT('',(-22.,0.,0.));
#669=CARTESIAN_POINT('',(-22.,0.,-9.49999999999995));
#670=CARTESIAN_POINT('',(-34.,9.49999999999994,0.));
#671=CARTESIAN_POINT('',(-34.,0.,0.));
#672=CARTESIAN_POINT('',(-34.,0.,-9.19999999999994));
#673=CARTESIAN_POINT('',(-34.3,0.,0.));
#674=CARTESIAN_POINT('',(-34.3,0.,0.));
#675=CARTESIAN_POINT('',(-34.3,0.,-9.49999999999994));
#676=CARTESIAN_POINT('',(500.,0.,0.));
#677=CARTESIAN_POINT('',(-28.,0.,0.));
#678=CARTESIAN_POINT('',(-22.,0.,0.));
#679=CARTESIAN_POINT('',(-22.,15.612494995996,-12.5));
#680=CARTESIAN_POINT('',(-22.,15.612494995996,12.5));
#681=CARTESIAN_POINT('',(-28.,15.612494995996,-12.5));
#682=CARTESIAN_POINT('',(-28.,15.612494995996,-12.5));
#683=CARTESIAN_POINT('',(-28.,0.,0.));
#684=CARTESIAN_POINT('',(-28.,15.612494995996,12.5));
#685=CARTESIAN_POINT('',(-28.,15.612494995996,12.5));
#686=CARTESIAN_POINT('',(-28.,15.612494995996,12.5));
#687=CARTESIAN_POINT('',(-22.,15.612494995996,12.5));
#688=CARTESIAN_POINT('',(-22.,-15.612494995996,12.5));
#689=CARTESIAN_POINT('',(-28.,15.612494995996,12.5));
#690=CARTESIAN_POINT('',(-28.,-15.612494995996,12.5));
#691=CARTESIAN_POINT('',(-28.,-15.612494995996,12.5));
#692=CARTESIAN_POINT('',(-28.,0.,0.));
#693=CARTESIAN_POINT('',(-22.,0.,0.));
#694=CARTESIAN_POINT('',(-22.,-15.612494995996,-12.5));
#695=CARTESIAN_POINT('',(-28.,0.,0.));
#696=CARTESIAN_POINT('',(-28.,-15.612494995996,-12.5));
#697=CARTESIAN_POINT('',(-28.,-15.612494995996,-12.5));
#698=CARTESIAN_POINT('',(-28.,-15.612494995996,-12.5));
#699=CARTESIAN_POINT('',(-22.,-15.612494995996,-12.5));
#700=CARTESIAN_POINT('',(-28.,-15.612494995996,-12.5));
#701=CARTESIAN_POINT('',(-28.,0.,0.));
#702=CARTESIAN_POINT('',(-28.,-14.5,0.));
#703=CARTESIAN_POINT('',(-28.,-14.5,2.25));
#704=CARTESIAN_POINT('',(-28.,14.5,0.));
#705=CARTESIAN_POINT('',(-28.,14.5,-2.25));
#706=CARTESIAN_POINT('',(-22.,0.,0.));
#707=CARTESIAN_POINT('',(-22.,-14.5,0.));
#708=CARTESIAN_POINT('',(-22.,-14.5,3.75));
#709=CARTESIAN_POINT('',(-22.,14.5,0.));
#710=CARTESIAN_POINT('',(-22.,14.5,-3.75));
#711=CARTESIAN_POINT('',(500.,14.5,0.));
#712=CARTESIAN_POINT('',(-26.1,14.5,0.));
#713=CARTESIAN_POINT('',(-26.1,14.5,-2.25));
#714=CARTESIAN_POINT('',(-26.1,16.75,0.));
#715=CARTESIAN_POINT('',(-26.1,14.5,0.));
#716=CARTESIAN_POINT('',(-26.1,14.5,-3.75));
#717=CARTESIAN_POINT('',(500.,14.5,0.));
#718=CARTESIAN_POINT('',(-500.,-14.5,0.));
#719=CARTESIAN_POINT('',(-26.1,-14.5,0.));
#720=CARTESIAN_POINT('',(-26.1,-14.5,3.75));
#721=CARTESIAN_POINT('',(-26.1,-18.25,0.));
#722=CARTESIAN_POINT('',(-26.1,-14.5,0.));
#723=CARTESIAN_POINT('',(-26.1,-14.5,2.25));
#724=CARTESIAN_POINT('',(-500.,-14.5,0.));
#725=CARTESIAN_POINT('',(-0.700000000000003,5.6,0.));
#726=CARTESIAN_POINT('',(-0.699999999999978,0.,0.));
#727=CARTESIAN_POINT('',(-0.699999999999978,0.,-5.29999999999999));
#728=CARTESIAN_POINT('',(-0.699999999999978,0.,0.));
#729=CARTESIAN_POINT('',(-0.699999999999978,0.,-5.6));
#730=CARTESIAN_POINT('',(480.5,0.,0.));
#731=CARTESIAN_POINT('',(480.5,0.,0.));
#732=CARTESIAN_POINT('',(-1.05,0.,0.));
#733=CARTESIAN_POINT('',(-1.05,0.,-5.6));
#734=CARTESIAN_POINT('',(-1.05,5.,0.));
#735=CARTESIAN_POINT('',(-1.05,0.,0.));
#736=CARTESIAN_POINT('',(-1.05,0.,-5.));
#737=CARTESIAN_POINT('',(500.,0.,0.));
#738=CARTESIAN_POINT('',(-37.95,0.,0.));
#739=CARTESIAN_POINT('',(-37.95,0.,-5.));
#740=CARTESIAN_POINT('',(480.5,0.,0.));
#741=CARTESIAN_POINT('',(-38.2999999999999,0.,0.));
#742=CARTESIAN_POINT('',(-38.2999999999999,0.,-5.3));
#743=CARTESIAN_POINT('',(-38.3,5.3,0.));
#744=CARTESIAN_POINT('',(-38.2999999999999,0.,0.));
#745=CARTESIAN_POINT('',(-38.2999999999999,0.,-5.6));
#746=CARTESIAN_POINT('',(480.5,0.,0.));
#747=CARTESIAN_POINT('',(-37.95,0.,0.));
#748=CARTESIAN_POINT('',(-37.95,0.,-5.6));
#749=CARTESIAN_POINT('',(-37.95,5.6,0.));
#750=MECHANICAL_DESIGN_GEOMETRIC_PRESENTATION_REPRESENTATION('',(#422),
#751);
#751=(
GEOMETRIC_REPRESENTATION_CONTEXT(3)
GLOBAL_UNCERTAINTY_ASSIGNED_CONTEXT((#752))
GLOBAL_UNIT_ASSIGNED_CONTEXT((#755,#754,#753))
REPRESENTATION_CONTEXT('LMHP10UU-MX','TOP_LEVEL_ASSEMBLY_PART')
);
#752=UNCERTAINTY_MEASURE_WITH_UNIT(LENGTH_MEASURE(0.005),#755,
'DISTANCE_ACCURACY_VALUE','Maximum Tolerance applied to model');
#753=(
NAMED_UNIT(*)
SI_UNIT($,.STERADIAN.)
SOLID_ANGLE_UNIT()
);
#754=(
NAMED_UNIT(*)
PLANE_ANGLE_UNIT()
SI_UNIT($,.RADIAN.)
);
#755=(
LENGTH_UNIT()
NAMED_UNIT(*)
SI_UNIT(.MILLI.,.METRE.)
);
#756=PRODUCT_DEFINITION_SHAPE('','',#757);
#757=PRODUCT_DEFINITION('','',#759,#758);
#758=DESIGN_CONTEXT('',#765,'design');
#759=PRODUCT_DEFINITION_FORMATION_WITH_SPECIFIED_SOURCE('','',#761,
 .NOT_KNOWN.);
#760=PRODUCT_RELATED_PRODUCT_CATEGORY('','',(#761));
#761=PRODUCT('LMHP10UU-MX','LMHP10UU-MX','LMHP10UU-MX',(#763));
#762=PRODUCT_CATEGORY('','');
#763=MECHANICAL_CONTEXT('',#765,'mechanical');
#764=APPLICATION_PROTOCOL_DEFINITION('international standard',
'config_control_design',2010,#765);
#765=APPLICATION_CONTEXT(
'configuration controlled 3D designs of mechanical parts and assemblie
s');
ENDSEC;
END-ISO-10303-21;
