ISO-10303-21;
HEADER;
/* Generated by software containing ST-Developer
 * from STEP Tools, Inc. (www.steptools.com) 
 */
/* OPTION: using custom renumber hook */

FILE_DESCRIPTION(
/* description */ ('STEP AP203'),
/* implementation_level */ '2;1');

FILE_NAME(
/* name */ 'LMTFM6LUU',
/* time_stamp */ '2022-08-20T10:34:58+02:00',
/* author */ ('License CC BY-ND 4.0'),
/* organization */ ('CADENAS'),
/* preprocessor_version */ 'ST-DEVELOPER v18.102',
/* originating_system */ 'PARTsolutions',
/* authorisation */ '  ');

FILE_SCHEMA (('CONFIG_CONTROL_DESIGN'));
ENDSEC;

DATA;
#10=PROPERTY_DEFINITION_REPRESENTATION(#14,#12);
#11=PROPERTY_DEFINITION_REPRESENTATION(#15,#13);
#12=REPRESENTATION('',(#16),#733);
#13=REPRESENTATION('',(#17),#733);
#14=PROPERTY_DEFINITION('pmi validation property','',#738);
#15=PROPERTY_DEFINITION('pmi validation property','',#738);
#16=VALUE_REPRESENTATION_ITEM('number of annotations',COUNT_MEASURE(0.));
#17=VALUE_REPRESENTATION_ITEM('number of views',COUNT_MEASURE(0.));
#18=SHAPE_REPRESENTATION_RELATIONSHIP('','',#419,#19);
#19=ADVANCED_BREP_SHAPE_REPRESENTATION('',(#417),#733);
#20=CONICAL_SURFACE('',#435,14.,0.785398163397504);
#21=CONICAL_SURFACE('',#449,13.5,0.78539816339745);
#22=PLANE('',#426);
#23=PLANE('',#428);
#24=PLANE('',#438);
#25=PLANE('',#443);
#26=PLANE('',#454);
#27=PLANE('',#459);
#28=PLANE('',#464);
#29=PLANE('',#469);
#30=PLANE('',#472);
#31=PLANE('',#478);
#32=PLANE('',#484);
#33=PLANE('',#488);
#34=TOROIDAL_SURFACE('',#424,5.5,0.500000000000003);
#35=TOROIDAL_SURFACE('',#431,5.5,0.500000000000002);
#36=ORIENTED_EDGE('',*,*,#108,.T.);
#37=ORIENTED_EDGE('',*,*,#109,.F.);
#38=ORIENTED_EDGE('',*,*,#110,.T.);
#39=ORIENTED_EDGE('',*,*,#108,.F.);
#40=ORIENTED_EDGE('',*,*,#111,.T.);
#41=ORIENTED_EDGE('',*,*,#110,.F.);
#42=ORIENTED_EDGE('',*,*,#112,.T.);
#43=ORIENTED_EDGE('',*,*,#113,.F.);
#44=ORIENTED_EDGE('',*,*,#114,.T.);
#45=ORIENTED_EDGE('',*,*,#112,.F.);
#46=ORIENTED_EDGE('',*,*,#115,.F.);
#47=ORIENTED_EDGE('',*,*,#114,.F.);
#48=ORIENTED_EDGE('',*,*,#116,.T.);
#49=ORIENTED_EDGE('',*,*,#117,.F.);
#50=ORIENTED_EDGE('',*,*,#109,.T.);
#51=ORIENTED_EDGE('',*,*,#118,.T.);
#52=ORIENTED_EDGE('',*,*,#119,.T.);
#53=ORIENTED_EDGE('',*,*,#120,.T.);
#54=ORIENTED_EDGE('',*,*,#121,.T.);
#55=ORIENTED_EDGE('',*,*,#116,.F.);
#56=ORIENTED_EDGE('',*,*,#122,.T.);
#57=ORIENTED_EDGE('',*,*,#123,.T.);
#58=ORIENTED_EDGE('',*,*,#124,.F.);
#59=ORIENTED_EDGE('',*,*,#125,.F.);
#60=ORIENTED_EDGE('',*,*,#126,.F.);
#61=ORIENTED_EDGE('',*,*,#115,.T.);
#62=ORIENTED_EDGE('',*,*,#127,.T.);
#63=ORIENTED_EDGE('',*,*,#122,.F.);
#64=ORIENTED_EDGE('',*,*,#117,.T.);
#65=ORIENTED_EDGE('',*,*,#127,.F.);
#66=ORIENTED_EDGE('',*,*,#128,.T.);
#67=ORIENTED_EDGE('',*,*,#118,.F.);
#68=ORIENTED_EDGE('',*,*,#129,.T.);
#69=ORIENTED_EDGE('',*,*,#128,.F.);
#70=ORIENTED_EDGE('',*,*,#123,.F.);
#71=ORIENTED_EDGE('',*,*,#129,.F.);
#72=ORIENTED_EDGE('',*,*,#130,.T.);
#73=ORIENTED_EDGE('',*,*,#121,.F.);
#74=ORIENTED_EDGE('',*,*,#131,.T.);
#75=ORIENTED_EDGE('',*,*,#130,.F.);
#76=ORIENTED_EDGE('',*,*,#126,.T.);
#77=ORIENTED_EDGE('',*,*,#131,.F.);
#78=ORIENTED_EDGE('',*,*,#132,.T.);
#79=ORIENTED_EDGE('',*,*,#120,.F.);
#80=ORIENTED_EDGE('',*,*,#133,.T.);
#81=ORIENTED_EDGE('',*,*,#132,.F.);
#82=ORIENTED_EDGE('',*,*,#125,.T.);
#83=ORIENTED_EDGE('',*,*,#133,.F.);
#84=ORIENTED_EDGE('',*,*,#134,.T.);
#85=ORIENTED_EDGE('',*,*,#119,.F.);
#86=ORIENTED_EDGE('',*,*,#135,.T.);
#87=ORIENTED_EDGE('',*,*,#134,.F.);
#88=ORIENTED_EDGE('',*,*,#124,.T.);
#89=ORIENTED_EDGE('',*,*,#135,.F.);
#90=ORIENTED_EDGE('',*,*,#136,.T.);
#91=ORIENTED_EDGE('',*,*,#137,.F.);
#92=ORIENTED_EDGE('',*,*,#113,.T.);
#93=ORIENTED_EDGE('',*,*,#136,.F.);
#94=ORIENTED_EDGE('',*,*,#137,.T.);
#95=ORIENTED_EDGE('',*,*,#138,.F.);
#96=ORIENTED_EDGE('',*,*,#138,.T.);
#97=ORIENTED_EDGE('',*,*,#139,.F.);
#98=ORIENTED_EDGE('',*,*,#139,.T.);
#99=ORIENTED_EDGE('',*,*,#140,.F.);
#100=ORIENTED_EDGE('',*,*,#141,.T.);
#101=ORIENTED_EDGE('',*,*,#111,.F.);
#102=ORIENTED_EDGE('',*,*,#142,.T.);
#103=ORIENTED_EDGE('',*,*,#141,.F.);
#104=ORIENTED_EDGE('',*,*,#143,.T.);
#105=ORIENTED_EDGE('',*,*,#142,.F.);
#106=ORIENTED_EDGE('',*,*,#140,.T.);
#107=ORIENTED_EDGE('',*,*,#143,.F.);
#108=EDGE_CURVE('',#144,#144,#180,.T.);
#109=EDGE_CURVE('',#145,#145,#181,.F.);
#110=EDGE_CURVE('',#146,#146,#182,.T.);
#111=EDGE_CURVE('',#147,#147,#183,.T.);
#112=EDGE_CURVE('',#148,#148,#184,.T.);
#113=EDGE_CURVE('',#149,#149,#185,.T.);
#114=EDGE_CURVE('',#150,#150,#186,.T.);
#115=EDGE_CURVE('',#151,#151,#187,.F.);
#116=EDGE_CURVE('',#152,#152,#188,.T.);
#117=EDGE_CURVE('',#153,#153,#189,.T.);
#118=EDGE_CURVE('',#154,#154,#190,.F.);
#119=EDGE_CURVE('',#155,#155,#191,.T.);
#120=EDGE_CURVE('',#156,#156,#192,.T.);
#121=EDGE_CURVE('',#157,#157,#193,.T.);
#122=EDGE_CURVE('',#158,#158,#194,.T.);
#123=EDGE_CURVE('',#159,#159,#195,.F.);
#124=EDGE_CURVE('',#160,#160,#196,.T.);
#125=EDGE_CURVE('',#161,#161,#197,.T.);
#126=EDGE_CURVE('',#162,#162,#198,.T.);
#127=EDGE_CURVE('',#163,#163,#199,.T.);
#128=EDGE_CURVE('',#164,#164,#200,.T.);
#129=EDGE_CURVE('',#165,#165,#201,.T.);
#130=EDGE_CURVE('',#166,#166,#202,.T.);
#131=EDGE_CURVE('',#167,#167,#203,.T.);
#132=EDGE_CURVE('',#168,#168,#204,.T.);
#133=EDGE_CURVE('',#169,#169,#205,.T.);
#134=EDGE_CURVE('',#170,#170,#206,.T.);
#135=EDGE_CURVE('',#171,#171,#207,.T.);
#136=EDGE_CURVE('',#172,#172,#208,.T.);
#137=EDGE_CURVE('',#173,#173,#209,.T.);
#138=EDGE_CURVE('',#174,#174,#210,.T.);
#139=EDGE_CURVE('',#175,#175,#211,.T.);
#140=EDGE_CURVE('',#176,#176,#212,.T.);
#141=EDGE_CURVE('',#177,#177,#213,.T.);
#142=EDGE_CURVE('',#178,#178,#214,.T.);
#143=EDGE_CURVE('',#179,#179,#215,.T.);
#144=VERTEX_POINT('',#630);
#145=VERTEX_POINT('',#632);
#146=VERTEX_POINT('',#635);
#147=VERTEX_POINT('',#638);
#148=VERTEX_POINT('',#641);
#149=VERTEX_POINT('',#643);
#150=VERTEX_POINT('',#646);
#151=VERTEX_POINT('',#649);
#152=VERTEX_POINT('',#652);
#153=VERTEX_POINT('',#654);
#154=VERTEX_POINT('',#657);
#155=VERTEX_POINT('',#659);
#156=VERTEX_POINT('',#661);
#157=VERTEX_POINT('',#663);
#158=VERTEX_POINT('',#666);
#159=VERTEX_POINT('',#668);
#160=VERTEX_POINT('',#670);
#161=VERTEX_POINT('',#672);
#162=VERTEX_POINT('',#674);
#163=VERTEX_POINT('',#677);
#164=VERTEX_POINT('',#681);
#165=VERTEX_POINT('',#684);
#166=VERTEX_POINT('',#688);
#167=VERTEX_POINT('',#691);
#168=VERTEX_POINT('',#695);
#169=VERTEX_POINT('',#698);
#170=VERTEX_POINT('',#702);
#171=VERTEX_POINT('',#705);
#172=VERTEX_POINT('',#709);
#173=VERTEX_POINT('',#711);
#174=VERTEX_POINT('',#715);
#175=VERTEX_POINT('',#718);
#176=VERTEX_POINT('',#721);
#177=VERTEX_POINT('',#724);
#178=VERTEX_POINT('',#727);
#179=VERTEX_POINT('',#730);
#180=CIRCLE('',#422,6.);
#181=CIRCLE('',#423,6.);
#182=CIRCLE('',#425,5.5);
#183=CIRCLE('',#427,3.2);
#184=CIRCLE('',#429,5.5);
#185=CIRCLE('',#430,3.20000000000001);
#186=CIRCLE('',#432,6.);
#187=CIRCLE('',#434,6.);
#188=CIRCLE('',#436,13.5);
#189=CIRCLE('',#437,14.);
#190=CIRCLE('',#439,3.);
#191=CIRCLE('',#440,3.);
#192=CIRCLE('',#441,3.);
#193=CIRCLE('',#442,3.);
#194=CIRCLE('',#444,13.5);
#195=CIRCLE('',#445,1.75);
#196=CIRCLE('',#446,1.75);
#197=CIRCLE('',#447,1.75);
#198=CIRCLE('',#448,1.75);
#199=CIRCLE('',#450,14.);
#200=CIRCLE('',#453,3.);
#201=CIRCLE('',#455,1.75);
#202=CIRCLE('',#458,3.);
#203=CIRCLE('',#460,1.75);
#204=CIRCLE('',#463,3.);
#205=CIRCLE('',#465,1.75);
#206=CIRCLE('',#468,3.);
#207=CIRCLE('',#470,1.75);
#208=CIRCLE('',#473,3.20000000000001);
#209=CIRCLE('',#474,3.4);
#210=CIRCLE('',#477,3.4);
#211=CIRCLE('',#479,3.);
#212=CIRCLE('',#481,3.);
#213=CIRCLE('',#483,3.2);
#214=CIRCLE('',#485,3.4);
#215=CIRCLE('',#487,3.4);
#216=EDGE_LOOP('',(#36));
#217=EDGE_LOOP('',(#37));
#218=EDGE_LOOP('',(#38));
#219=EDGE_LOOP('',(#39));
#220=EDGE_LOOP('',(#40));
#221=EDGE_LOOP('',(#41));
#222=EDGE_LOOP('',(#42));
#223=EDGE_LOOP('',(#43));
#224=EDGE_LOOP('',(#44));
#225=EDGE_LOOP('',(#45));
#226=EDGE_LOOP('',(#46));
#227=EDGE_LOOP('',(#47));
#228=EDGE_LOOP('',(#48));
#229=EDGE_LOOP('',(#49));
#230=EDGE_LOOP('',(#50));
#231=EDGE_LOOP('',(#51));
#232=EDGE_LOOP('',(#52));
#233=EDGE_LOOP('',(#53));
#234=EDGE_LOOP('',(#54));
#235=EDGE_LOOP('',(#55));
#236=EDGE_LOOP('',(#56));
#237=EDGE_LOOP('',(#57));
#238=EDGE_LOOP('',(#58));
#239=EDGE_LOOP('',(#59));
#240=EDGE_LOOP('',(#60));
#241=EDGE_LOOP('',(#61));
#242=EDGE_LOOP('',(#62));
#243=EDGE_LOOP('',(#63));
#244=EDGE_LOOP('',(#64));
#245=EDGE_LOOP('',(#65));
#246=EDGE_LOOP('',(#66));
#247=EDGE_LOOP('',(#67));
#248=EDGE_LOOP('',(#68));
#249=EDGE_LOOP('',(#69));
#250=EDGE_LOOP('',(#70));
#251=EDGE_LOOP('',(#71));
#252=EDGE_LOOP('',(#72));
#253=EDGE_LOOP('',(#73));
#254=EDGE_LOOP('',(#74));
#255=EDGE_LOOP('',(#75));
#256=EDGE_LOOP('',(#76));
#257=EDGE_LOOP('',(#77));
#258=EDGE_LOOP('',(#78));
#259=EDGE_LOOP('',(#79));
#260=EDGE_LOOP('',(#80));
#261=EDGE_LOOP('',(#81));
#262=EDGE_LOOP('',(#82));
#263=EDGE_LOOP('',(#83));
#264=EDGE_LOOP('',(#84));
#265=EDGE_LOOP('',(#85));
#266=EDGE_LOOP('',(#86));
#267=EDGE_LOOP('',(#87));
#268=EDGE_LOOP('',(#88));
#269=EDGE_LOOP('',(#89));
#270=EDGE_LOOP('',(#90));
#271=EDGE_LOOP('',(#91));
#272=EDGE_LOOP('',(#92));
#273=EDGE_LOOP('',(#93));
#274=EDGE_LOOP('',(#94));
#275=EDGE_LOOP('',(#95));
#276=EDGE_LOOP('',(#96));
#277=EDGE_LOOP('',(#97));
#278=EDGE_LOOP('',(#98));
#279=EDGE_LOOP('',(#99));
#280=EDGE_LOOP('',(#100));
#281=EDGE_LOOP('',(#101));
#282=EDGE_LOOP('',(#102));
#283=EDGE_LOOP('',(#103));
#284=EDGE_LOOP('',(#104));
#285=EDGE_LOOP('',(#105));
#286=EDGE_LOOP('',(#106));
#287=EDGE_LOOP('',(#107));
#288=FACE_BOUND('',#216,.T.);
#289=FACE_BOUND('',#217,.T.);
#290=FACE_BOUND('',#218,.T.);
#291=FACE_BOUND('',#219,.T.);
#292=FACE_BOUND('',#220,.T.);
#293=FACE_BOUND('',#221,.T.);
#294=FACE_BOUND('',#222,.T.);
#295=FACE_BOUND('',#223,.T.);
#296=FACE_BOUND('',#224,.T.);
#297=FACE_BOUND('',#225,.T.);
#298=FACE_BOUND('',#226,.T.);
#299=FACE_BOUND('',#227,.T.);
#300=FACE_BOUND('',#228,.T.);
#301=FACE_BOUND('',#229,.T.);
#302=FACE_BOUND('',#230,.T.);
#303=FACE_BOUND('',#231,.T.);
#304=FACE_BOUND('',#232,.T.);
#305=FACE_BOUND('',#233,.T.);
#306=FACE_BOUND('',#234,.T.);
#307=FACE_BOUND('',#235,.T.);
#308=FACE_BOUND('',#236,.T.);
#309=FACE_BOUND('',#237,.T.);
#310=FACE_BOUND('',#238,.T.);
#311=FACE_BOUND('',#239,.T.);
#312=FACE_BOUND('',#240,.T.);
#313=FACE_BOUND('',#241,.T.);
#314=FACE_BOUND('',#242,.T.);
#315=FACE_BOUND('',#243,.T.);
#316=FACE_BOUND('',#244,.T.);
#317=FACE_BOUND('',#245,.T.);
#318=FACE_BOUND('',#246,.T.);
#319=FACE_BOUND('',#247,.T.);
#320=FACE_BOUND('',#248,.T.);
#321=FACE_BOUND('',#249,.T.);
#322=FACE_BOUND('',#250,.T.);
#323=FACE_BOUND('',#251,.T.);
#324=FACE_BOUND('',#252,.T.);
#325=FACE_BOUND('',#253,.T.);
#326=FACE_BOUND('',#254,.T.);
#327=FACE_BOUND('',#255,.T.);
#328=FACE_BOUND('',#256,.T.);
#329=FACE_BOUND('',#257,.T.);
#330=FACE_BOUND('',#258,.T.);
#331=FACE_BOUND('',#259,.T.);
#332=FACE_BOUND('',#260,.T.);
#333=FACE_BOUND('',#261,.T.);
#334=FACE_BOUND('',#262,.T.);
#335=FACE_BOUND('',#263,.T.);
#336=FACE_BOUND('',#264,.T.);
#337=FACE_BOUND('',#265,.T.);
#338=FACE_BOUND('',#266,.T.);
#339=FACE_BOUND('',#267,.T.);
#340=FACE_BOUND('',#268,.T.);
#341=FACE_BOUND('',#269,.T.);
#342=FACE_BOUND('',#270,.T.);
#343=FACE_BOUND('',#271,.T.);
#344=FACE_BOUND('',#272,.T.);
#345=FACE_BOUND('',#273,.T.);
#346=FACE_BOUND('',#274,.T.);
#347=FACE_BOUND('',#275,.T.);
#348=FACE_BOUND('',#276,.T.);
#349=FACE_BOUND('',#277,.T.);
#350=FACE_BOUND('',#278,.T.);
#351=FACE_BOUND('',#279,.T.);
#352=FACE_BOUND('',#280,.T.);
#353=FACE_BOUND('',#281,.T.);
#354=FACE_BOUND('',#282,.T.);
#355=FACE_BOUND('',#283,.T.);
#356=FACE_BOUND('',#284,.T.);
#357=FACE_BOUND('',#285,.T.);
#358=FACE_BOUND('',#286,.T.);
#359=FACE_BOUND('',#287,.T.);
#360=CYLINDRICAL_SURFACE('',#421,6.);
#361=CYLINDRICAL_SURFACE('',#433,6.);
#362=CYLINDRICAL_SURFACE('',#451,14.);
#363=CYLINDRICAL_SURFACE('',#452,3.);
#364=CYLINDRICAL_SURFACE('',#456,1.75);
#365=CYLINDRICAL_SURFACE('',#457,3.);
#366=CYLINDRICAL_SURFACE('',#461,1.75);
#367=CYLINDRICAL_SURFACE('',#462,3.);
#368=CYLINDRICAL_SURFACE('',#466,1.75);
#369=CYLINDRICAL_SURFACE('',#467,3.);
#370=CYLINDRICAL_SURFACE('',#471,1.75);
#371=CYLINDRICAL_SURFACE('',#475,3.20000000000001);
#372=CYLINDRICAL_SURFACE('',#476,3.4);
#373=CYLINDRICAL_SURFACE('',#480,3.);
#374=CYLINDRICAL_SURFACE('',#482,3.2);
#375=CYLINDRICAL_SURFACE('',#486,3.4);
#376=ADVANCED_FACE('',(#288,#289),#360,.T.);
#377=ADVANCED_FACE('',(#290,#291),#34,.T.);
#378=ADVANCED_FACE('',(#292,#293),#22,.T.);
#379=ADVANCED_FACE('',(#294,#295),#23,.T.);
#380=ADVANCED_FACE('',(#296,#297),#35,.T.);
#381=ADVANCED_FACE('',(#298,#299),#361,.T.);
#382=ADVANCED_FACE('',(#300,#301),#20,.T.);
#383=ADVANCED_FACE('',(#302,#303,#304,#305,#306,#307),#24,.T.);
#384=ADVANCED_FACE('',(#308,#309,#310,#311,#312,#313),#25,.T.);
#385=ADVANCED_FACE('',(#314,#315),#21,.T.);
#386=ADVANCED_FACE('',(#316,#317),#362,.T.);
#387=ADVANCED_FACE('',(#318,#319),#363,.F.);
#388=ADVANCED_FACE('',(#320,#321),#26,.T.);
#389=ADVANCED_FACE('',(#322,#323),#364,.F.);
#390=ADVANCED_FACE('',(#324,#325),#365,.F.);
#391=ADVANCED_FACE('',(#326,#327),#27,.T.);
#392=ADVANCED_FACE('',(#328,#329),#366,.F.);
#393=ADVANCED_FACE('',(#330,#331),#367,.F.);
#394=ADVANCED_FACE('',(#332,#333),#28,.T.);
#395=ADVANCED_FACE('',(#334,#335),#368,.F.);
#396=ADVANCED_FACE('',(#336,#337),#369,.F.);
#397=ADVANCED_FACE('',(#338,#339),#29,.T.);
#398=ADVANCED_FACE('',(#340,#341),#370,.F.);
#399=ADVANCED_FACE('',(#342,#343),#30,.T.);
#400=ADVANCED_FACE('',(#344,#345),#371,.F.);
#401=ADVANCED_FACE('',(#346,#347),#372,.F.);
#402=ADVANCED_FACE('',(#348,#349),#31,.T.);
#403=ADVANCED_FACE('',(#350,#351),#373,.F.);
#404=ADVANCED_FACE('',(#352,#353),#374,.F.);
#405=ADVANCED_FACE('',(#354,#355),#32,.T.);
#406=ADVANCED_FACE('',(#356,#357),#375,.F.);
#407=ADVANCED_FACE('',(#358,#359),#33,.T.);
#408=CLOSED_SHELL('',(#376,#377,#378,#379,#380,#381,#382,#383,#384,#385,
#386,#387,#388,#389,#390,#391,#392,#393,#394,#395,#396,#397,#398,#399,#400,
#401,#402,#403,#404,#405,#406,#407));
#409=STYLED_ITEM('',(#410),#417);
#410=PRESENTATION_STYLE_ASSIGNMENT((#411));
#411=SURFACE_STYLE_USAGE(.BOTH.,#412);
#412=SURFACE_SIDE_STYLE('',(#413));
#413=SURFACE_STYLE_FILL_AREA(#414);
#414=FILL_AREA_STYLE('',(#415));
#415=FILL_AREA_STYLE_COLOUR('',#416);
#416=COLOUR_RGB('',0.689999997615814,0.689999997615814,0.689999997615814);
#417=MANIFOLD_SOLID_BREP('LMTFM6LUU',#408);
#418=SHAPE_DEFINITION_REPRESENTATION(#738,#419);
#419=SHAPE_REPRESENTATION('LMTFM6LUU',(#420),#733);
#420=AXIS2_PLACEMENT_3D('',#627,#489,#490);
#421=AXIS2_PLACEMENT_3D('',#628,#491,#492);
#422=AXIS2_PLACEMENT_3D('',#629,#493,#494);
#423=AXIS2_PLACEMENT_3D('',#631,#495,#496);
#424=AXIS2_PLACEMENT_3D('',#633,#497,#498);
#425=AXIS2_PLACEMENT_3D('',#634,#499,#500);
#426=AXIS2_PLACEMENT_3D('',#636,#501,#502);
#427=AXIS2_PLACEMENT_3D('',#637,#503,#504);
#428=AXIS2_PLACEMENT_3D('',#639,#505,#506);
#429=AXIS2_PLACEMENT_3D('',#640,#507,#508);
#430=AXIS2_PLACEMENT_3D('',#642,#509,#510);
#431=AXIS2_PLACEMENT_3D('',#644,#511,#512);
#432=AXIS2_PLACEMENT_3D('',#645,#513,#514);
#433=AXIS2_PLACEMENT_3D('',#647,#515,#516);
#434=AXIS2_PLACEMENT_3D('',#648,#517,#518);
#435=AXIS2_PLACEMENT_3D('',#650,#519,#520);
#436=AXIS2_PLACEMENT_3D('',#651,#521,#522);
#437=AXIS2_PLACEMENT_3D('',#653,#523,#524);
#438=AXIS2_PLACEMENT_3D('',#655,#525,#526);
#439=AXIS2_PLACEMENT_3D('',#656,#527,#528);
#440=AXIS2_PLACEMENT_3D('',#658,#529,#530);
#441=AXIS2_PLACEMENT_3D('',#660,#531,#532);
#442=AXIS2_PLACEMENT_3D('',#662,#533,#534);
#443=AXIS2_PLACEMENT_3D('',#664,#535,#536);
#444=AXIS2_PLACEMENT_3D('',#665,#537,#538);
#445=AXIS2_PLACEMENT_3D('',#667,#539,#540);
#446=AXIS2_PLACEMENT_3D('',#669,#541,#542);
#447=AXIS2_PLACEMENT_3D('',#671,#543,#544);
#448=AXIS2_PLACEMENT_3D('',#673,#545,#546);
#449=AXIS2_PLACEMENT_3D('',#675,#547,#548);
#450=AXIS2_PLACEMENT_3D('',#676,#549,#550);
#451=AXIS2_PLACEMENT_3D('',#678,#551,#552);
#452=AXIS2_PLACEMENT_3D('',#679,#553,#554);
#453=AXIS2_PLACEMENT_3D('',#680,#555,#556);
#454=AXIS2_PLACEMENT_3D('',#682,#557,#558);
#455=AXIS2_PLACEMENT_3D('',#683,#559,#560);
#456=AXIS2_PLACEMENT_3D('',#685,#561,#562);
#457=AXIS2_PLACEMENT_3D('',#686,#563,#564);
#458=AXIS2_PLACEMENT_3D('',#687,#565,#566);
#459=AXIS2_PLACEMENT_3D('',#689,#567,#568);
#460=AXIS2_PLACEMENT_3D('',#690,#569,#570);
#461=AXIS2_PLACEMENT_3D('',#692,#571,#572);
#462=AXIS2_PLACEMENT_3D('',#693,#573,#574);
#463=AXIS2_PLACEMENT_3D('',#694,#575,#576);
#464=AXIS2_PLACEMENT_3D('',#696,#577,#578);
#465=AXIS2_PLACEMENT_3D('',#697,#579,#580);
#466=AXIS2_PLACEMENT_3D('',#699,#581,#582);
#467=AXIS2_PLACEMENT_3D('',#700,#583,#584);
#468=AXIS2_PLACEMENT_3D('',#701,#585,#586);
#469=AXIS2_PLACEMENT_3D('',#703,#587,#588);
#470=AXIS2_PLACEMENT_3D('',#704,#589,#590);
#471=AXIS2_PLACEMENT_3D('',#706,#591,#592);
#472=AXIS2_PLACEMENT_3D('',#707,#593,#594);
#473=AXIS2_PLACEMENT_3D('',#708,#595,#596);
#474=AXIS2_PLACEMENT_3D('',#710,#597,#598);
#475=AXIS2_PLACEMENT_3D('',#712,#599,#600);
#476=AXIS2_PLACEMENT_3D('',#713,#601,#602);
#477=AXIS2_PLACEMENT_3D('',#714,#603,#604);
#478=AXIS2_PLACEMENT_3D('',#716,#605,#606);
#479=AXIS2_PLACEMENT_3D('',#717,#607,#608);
#480=AXIS2_PLACEMENT_3D('',#719,#609,#610);
#481=AXIS2_PLACEMENT_3D('',#720,#611,#612);
#482=AXIS2_PLACEMENT_3D('',#722,#613,#614);
#483=AXIS2_PLACEMENT_3D('',#723,#615,#616);
#484=AXIS2_PLACEMENT_3D('',#725,#617,#618);
#485=AXIS2_PLACEMENT_3D('',#726,#619,#620);
#486=AXIS2_PLACEMENT_3D('',#728,#621,#622);
#487=AXIS2_PLACEMENT_3D('',#729,#623,#624);
#488=AXIS2_PLACEMENT_3D('',#731,#625,#626);
#489=DIRECTION('',(0.,0.,1.));
#490=DIRECTION('',(1.,0.,0.));
#491=DIRECTION('',(1.,0.,0.));
#492=DIRECTION('',(0.,0.,-1.));
#493=DIRECTION('',(1.,0.,0.));
#494=DIRECTION('',(0.,0.,-1.));
#495=DIRECTION('',(-1.,0.,0.));
#496=DIRECTION('',(0.,0.,1.));
#497=DIRECTION('',(1.,0.,0.));
#498=DIRECTION('',(0.,0.,-1.));
#499=DIRECTION('',(1.,0.,0.));
#500=DIRECTION('',(0.,0.,-1.));
#501=DIRECTION('',(-1.,0.,0.));
#502=DIRECTION('',(0.,0.,1.));
#503=DIRECTION('',(1.,0.,0.));
#504=DIRECTION('',(0.,0.,-1.));
#505=DIRECTION('',(1.,0.,0.));
#506=DIRECTION('',(0.,0.,-1.));
#507=DIRECTION('',(1.,0.,0.));
#508=DIRECTION('',(0.,0.,-1.));
#509=DIRECTION('',(1.,0.,0.));
#510=DIRECTION('',(0.,0.,-1.));
#511=DIRECTION('',(1.,0.,0.));
#512=DIRECTION('',(0.,0.,-1.));
#513=DIRECTION('',(1.,0.,0.));
#514=DIRECTION('',(0.,0.,-1.));
#515=DIRECTION('',(1.,0.,0.));
#516=DIRECTION('',(0.,0.,-1.));
#517=DIRECTION('',(1.,0.,0.));
#518=DIRECTION('',(0.,0.,-1.));
#519=DIRECTION('',(1.,0.,0.));
#520=DIRECTION('',(0.,0.,-1.));
#521=DIRECTION('',(1.,0.,0.));
#522=DIRECTION('',(0.,0.,-1.));
#523=DIRECTION('',(1.,0.,0.));
#524=DIRECTION('',(0.,0.,-1.));
#525=DIRECTION('',(-1.,0.,0.));
#526=DIRECTION('',(0.,0.,1.));
#527=DIRECTION('',(-1.,0.,0.));
#528=DIRECTION('',(0.,0.,1.));
#529=DIRECTION('',(1.,0.,0.));
#530=DIRECTION('',(0.,0.,-1.));
#531=DIRECTION('',(1.,0.,0.));
#532=DIRECTION('',(0.,0.,-1.));
#533=DIRECTION('',(1.,0.,0.));
#534=DIRECTION('',(0.,0.,-1.));
#535=DIRECTION('',(1.,0.,0.));
#536=DIRECTION('',(0.,0.,-1.));
#537=DIRECTION('',(1.,0.,0.));
#538=DIRECTION('',(0.,0.,-1.));
#539=DIRECTION('',(1.,0.,0.));
#540=DIRECTION('',(0.,0.,-1.));
#541=DIRECTION('',(1.,0.,0.));
#542=DIRECTION('',(0.,0.,-1.));
#543=DIRECTION('',(1.,0.,0.));
#544=DIRECTION('',(0.,0.,-1.));
#545=DIRECTION('',(1.,0.,0.));
#546=DIRECTION('',(0.,0.,-1.));
#547=DIRECTION('',(-1.,0.,0.));
#548=DIRECTION('',(0.,0.,1.));
#549=DIRECTION('',(1.,0.,0.));
#550=DIRECTION('',(0.,0.,-1.));
#551=DIRECTION('',(1.,0.,0.));
#552=DIRECTION('',(0.,0.,-1.));
#553=DIRECTION('',(1.,0.,0.));
#554=DIRECTION('',(0.,0.,-1.));
#555=DIRECTION('',(1.,0.,0.));
#556=DIRECTION('',(0.,0.,-1.));
#557=DIRECTION('',(-1.,0.,0.));
#558=DIRECTION('',(0.,0.,1.));
#559=DIRECTION('',(1.,0.,0.));
#560=DIRECTION('',(0.,0.,-1.));
#561=DIRECTION('',(1.,0.,0.));
#562=DIRECTION('',(0.,0.,-1.));
#563=DIRECTION('',(1.,0.,0.));
#564=DIRECTION('',(0.,0.,-1.));
#565=DIRECTION('',(1.,0.,0.));
#566=DIRECTION('',(0.,0.,-1.));
#567=DIRECTION('',(-1.,0.,0.));
#568=DIRECTION('',(0.,0.,1.));
#569=DIRECTION('',(1.,0.,0.));
#570=DIRECTION('',(0.,0.,-1.));
#571=DIRECTION('',(1.,0.,0.));
#572=DIRECTION('',(0.,0.,-1.));
#573=DIRECTION('',(1.,0.,0.));
#574=DIRECTION('',(0.,0.,-1.));
#575=DIRECTION('',(1.,0.,0.));
#576=DIRECTION('',(0.,0.,-1.));
#577=DIRECTION('',(-1.,0.,0.));
#578=DIRECTION('',(0.,0.,1.));
#579=DIRECTION('',(1.,0.,0.));
#580=DIRECTION('',(0.,0.,-1.));
#581=DIRECTION('',(1.,0.,0.));
#582=DIRECTION('',(0.,0.,-1.));
#583=DIRECTION('',(1.,0.,0.));
#584=DIRECTION('',(0.,0.,-1.));
#585=DIRECTION('',(1.,0.,0.));
#586=DIRECTION('',(0.,0.,-1.));
#587=DIRECTION('',(-1.,0.,0.));
#588=DIRECTION('',(0.,0.,1.));
#589=DIRECTION('',(1.,0.,0.));
#590=DIRECTION('',(0.,0.,-1.));
#591=DIRECTION('',(1.,0.,0.));
#592=DIRECTION('',(0.,0.,-1.));
#593=DIRECTION('',(-1.,0.,0.));
#594=DIRECTION('',(0.,0.,1.));
#595=DIRECTION('',(1.,0.,0.));
#596=DIRECTION('',(0.,0.,-1.));
#597=DIRECTION('',(1.,0.,0.));
#598=DIRECTION('',(0.,0.,-1.));
#599=DIRECTION('',(1.,0.,0.));
#600=DIRECTION('',(0.,0.,-1.));
#601=DIRECTION('',(1.,0.,0.));
#602=DIRECTION('',(0.,0.,-1.));
#603=DIRECTION('',(1.,0.,0.));
#604=DIRECTION('',(0.,0.,-1.));
#605=DIRECTION('',(1.,0.,0.));
#606=DIRECTION('',(0.,0.,-1.));
#607=DIRECTION('',(1.,0.,0.));
#608=DIRECTION('',(0.,0.,-1.));
#609=DIRECTION('',(1.,0.,0.));
#610=DIRECTION('',(0.,0.,-1.));
#611=DIRECTION('',(1.,0.,0.));
#612=DIRECTION('',(0.,0.,-1.));
#613=DIRECTION('',(1.,0.,0.));
#614=DIRECTION('',(0.,0.,-1.));
#615=DIRECTION('',(1.,0.,0.));
#616=DIRECTION('',(0.,0.,-1.));
#617=DIRECTION('',(1.,0.,0.));
#618=DIRECTION('',(0.,0.,-1.));
#619=DIRECTION('',(1.,0.,0.));
#620=DIRECTION('',(0.,0.,-1.));
#621=DIRECTION('',(1.,0.,0.));
#622=DIRECTION('',(0.,0.,-1.));
#623=DIRECTION('',(1.,0.,0.));
#624=DIRECTION('',(0.,0.,-1.));
#625=DIRECTION('',(-1.,0.,0.));
#626=DIRECTION('',(0.,0.,1.));
#627=CARTESIAN_POINT('',(0.,0.,0.));
#628=CARTESIAN_POINT('',(500.,0.,0.));
#629=CARTESIAN_POINT('',(-14.,0.,0.));
#630=CARTESIAN_POINT('',(-14.,0.,-6.));
#631=CARTESIAN_POINT('',(-2.49999999999995,0.,0.));
#632=CARTESIAN_POINT('',(-2.49999999999995,0.,6.));
#633=CARTESIAN_POINT('',(-14.,0.,0.));
#634=CARTESIAN_POINT('',(-14.5,0.,0.));
#635=CARTESIAN_POINT('',(-14.5,0.,-5.5));
#636=CARTESIAN_POINT('',(-14.5,5.5,0.));
#637=CARTESIAN_POINT('',(-14.5,0.,0.));
#638=CARTESIAN_POINT('',(-14.5,0.,-3.2));
#639=CARTESIAN_POINT('',(14.5,3.,0.));
#640=CARTESIAN_POINT('',(14.5,0.,0.));
#641=CARTESIAN_POINT('',(14.5,0.,-5.5));
#642=CARTESIAN_POINT('',(14.5,0.,0.));
#643=CARTESIAN_POINT('',(14.5,0.,-3.20000000000001));
#644=CARTESIAN_POINT('',(14.,0.,0.));
#645=CARTESIAN_POINT('',(14.,0.,0.));
#646=CARTESIAN_POINT('',(14.,0.,-6.));
#647=CARTESIAN_POINT('',(500.,0.,0.));
#648=CARTESIAN_POINT('',(2.5,0.,0.));
#649=CARTESIAN_POINT('',(2.5,0.,-6.));
#650=CARTESIAN_POINT('',(-2.,0.,0.));
#651=CARTESIAN_POINT('',(-2.49999999999995,0.,0.));
#652=CARTESIAN_POINT('',(-2.49999999999995,0.,-13.5));
#653=CARTESIAN_POINT('',(-2.,0.,0.));
#654=CARTESIAN_POINT('',(-2.,0.,-14.));
#655=CARTESIAN_POINT('',(-2.5,13.5,0.));
#656=CARTESIAN_POINT('',(-2.5,10.,0.));
#657=CARTESIAN_POINT('',(-2.5,10.,3.));
#658=CARTESIAN_POINT('',(-2.5,0.,10.));
#659=CARTESIAN_POINT('',(-2.5,0.,7.));
#660=CARTESIAN_POINT('',(-2.5,-10.,0.));
#661=CARTESIAN_POINT('',(-2.5,-10.,-3.));
#662=CARTESIAN_POINT('',(-2.5,0.,-10.));
#663=CARTESIAN_POINT('',(-2.5,0.,-13.));
#664=CARTESIAN_POINT('',(2.5,3.,0.));
#665=CARTESIAN_POINT('',(2.5,0.,0.));
#666=CARTESIAN_POINT('',(2.5,0.,-13.5));
#667=CARTESIAN_POINT('',(2.5,10.,0.));
#668=CARTESIAN_POINT('',(2.5,10.,-1.75));
#669=CARTESIAN_POINT('',(2.5,0.,10.));
#670=CARTESIAN_POINT('',(2.5,0.,8.25));
#671=CARTESIAN_POINT('',(2.5,-10.,0.));
#672=CARTESIAN_POINT('',(2.5,-10.,-1.75));
#673=CARTESIAN_POINT('',(2.5,0.,-10.));
#674=CARTESIAN_POINT('',(2.5,0.,-11.75));
#675=CARTESIAN_POINT('',(2.5,0.,0.));
#676=CARTESIAN_POINT('',(2.,0.,0.));
#677=CARTESIAN_POINT('',(2.,0.,-14.));
#678=CARTESIAN_POINT('',(500.,0.,0.));
#679=CARTESIAN_POINT('',(2.5,10.,0.));
#680=CARTESIAN_POINT('',(0.6,10.,0.));
#681=CARTESIAN_POINT('',(0.6,10.,-3.));
#682=CARTESIAN_POINT('',(0.6,13.,0.));
#683=CARTESIAN_POINT('',(0.6,10.,0.));
#684=CARTESIAN_POINT('',(0.6,10.,-1.75));
#685=CARTESIAN_POINT('',(2.5,10.,0.));
#686=CARTESIAN_POINT('',(2.5,0.,-10.));
#687=CARTESIAN_POINT('',(0.6,0.,-10.));
#688=CARTESIAN_POINT('',(0.6,0.,-13.));
#689=CARTESIAN_POINT('',(0.6,3.,-10.));
#690=CARTESIAN_POINT('',(0.6,0.,-10.));
#691=CARTESIAN_POINT('',(0.6,0.,-11.75));
#692=CARTESIAN_POINT('',(2.5,0.,-10.));
#693=CARTESIAN_POINT('',(2.5,-10.,0.));
#694=CARTESIAN_POINT('',(0.6,-10.,0.));
#695=CARTESIAN_POINT('',(0.6,-10.,-3.));
#696=CARTESIAN_POINT('',(0.6,-7.,0.));
#697=CARTESIAN_POINT('',(0.6,-10.,0.));
#698=CARTESIAN_POINT('',(0.6,-10.,-1.75));
#699=CARTESIAN_POINT('',(2.5,-10.,0.));
#700=CARTESIAN_POINT('',(2.5,0.,10.));
#701=CARTESIAN_POINT('',(0.6,0.,10.));
#702=CARTESIAN_POINT('',(0.6,0.,7.));
#703=CARTESIAN_POINT('',(0.6,3.,10.));
#704=CARTESIAN_POINT('',(0.6,0.,10.));
#705=CARTESIAN_POINT('',(0.6,0.,8.25));
#706=CARTESIAN_POINT('',(2.5,0.,10.));
#707=CARTESIAN_POINT('',(14.,3.4,0.));
#708=CARTESIAN_POINT('',(14.,0.,0.));
#709=CARTESIAN_POINT('',(14.,0.,-3.20000000000001));
#710=CARTESIAN_POINT('',(14.,0.,0.));
#711=CARTESIAN_POINT('',(14.,0.,-3.4));
#712=CARTESIAN_POINT('',(500.,0.,0.));
#713=CARTESIAN_POINT('',(500.,0.,0.));
#714=CARTESIAN_POINT('',(13.7,0.,0.));
#715=CARTESIAN_POINT('',(13.7,0.,-3.4));
#716=CARTESIAN_POINT('',(13.7,3.,0.));
#717=CARTESIAN_POINT('',(13.7,0.,0.));
#718=CARTESIAN_POINT('',(13.7,0.,-3.));
#719=CARTESIAN_POINT('',(500.,0.,0.));
#720=CARTESIAN_POINT('',(-13.7,0.,0.));
#721=CARTESIAN_POINT('',(-13.7,0.,-3.));
#722=CARTESIAN_POINT('',(500.,0.,0.));
#723=CARTESIAN_POINT('',(-14.,0.,0.));
#724=CARTESIAN_POINT('',(-14.,0.,-3.2));
#725=CARTESIAN_POINT('',(-14.,3.2,0.));
#726=CARTESIAN_POINT('',(-14.,0.,0.));
#727=CARTESIAN_POINT('',(-14.,0.,-3.4));
#728=CARTESIAN_POINT('',(500.,0.,0.));
#729=CARTESIAN_POINT('',(-13.7,0.,0.));
#730=CARTESIAN_POINT('',(-13.7,0.,-3.4));
#731=CARTESIAN_POINT('',(-13.7,3.4,0.));
#732=MECHANICAL_DESIGN_GEOMETRIC_PRESENTATION_REPRESENTATION('',(#409),
#733);
#733=(
GEOMETRIC_REPRESENTATION_CONTEXT(3)
GLOBAL_UNCERTAINTY_ASSIGNED_CONTEXT((#734))
GLOBAL_UNIT_ASSIGNED_CONTEXT((#737,#736,#735))
REPRESENTATION_CONTEXT('LMTFM6LUU','TOP_LEVEL_ASSEMBLY_PART')
);
#734=UNCERTAINTY_MEASURE_WITH_UNIT(LENGTH_MEASURE(0.005),#737,
'DISTANCE_ACCURACY_VALUE','Maximum Tolerance applied to model');
#735=(
NAMED_UNIT(*)
SI_UNIT($,.STERADIAN.)
SOLID_ANGLE_UNIT()
);
#736=(
NAMED_UNIT(*)
PLANE_ANGLE_UNIT()
SI_UNIT($,.RADIAN.)
);
#737=(
LENGTH_UNIT()
NAMED_UNIT(*)
SI_UNIT(.MILLI.,.METRE.)
);
#738=PRODUCT_DEFINITION_SHAPE('','',#739);
#739=PRODUCT_DEFINITION('','',#741,#740);
#740=DESIGN_CONTEXT('',#747,'design');
#741=PRODUCT_DEFINITION_FORMATION_WITH_SPECIFIED_SOURCE('','',#743,
 .NOT_KNOWN.);
#742=PRODUCT_RELATED_PRODUCT_CATEGORY('','',(#743));
#743=PRODUCT('LMTFM6LUU','LMTFM6LUU','LMTFM6LUU',(#745));
#744=PRODUCT_CATEGORY('','');
#745=MECHANICAL_CONTEXT('',#747,'mechanical');
#746=APPLICATION_PROTOCOL_DEFINITION('international standard',
'config_control_design',2010,#747);
#747=APPLICATION_CONTEXT(
'configuration controlled 3D designs of mechanical parts and assemblie
s');
ENDSEC;
END-ISO-10303-21;
