ISO-10303-21;
HEADER;
/* Generated by software containing ST-Developer
 * from STEP Tools, Inc. (www.steptools.com) 
 */
/* OPTION: using custom renumber hook */

FILE_DESCRIPTION(
/* description */ ('STEP AP203'),
/* implementation_level */ '2;1');

FILE_NAME(
/* name */ 'STH6',
/* time_stamp */ '2022-08-19T10:33:19+02:00',
/* author */ ('License CC BY-ND 4.0'),
/* organization */ ('CADENAS'),
/* preprocessor_version */ 'ST-DEVELOPER v18.102',
/* originating_system */ 'PARTsolutions',
/* authorisation */ '  ');

FILE_SCHEMA (('CONFIG_CONTROL_DESIGN','TECHNICAL_DATA_PACKAGING'));
ENDSEC;

DATA;
#10=PROPERTY_DEFINITION_REPRESENTATION(#14,#12);
#11=PROPERTY_DEFINITION_REPRESENTATION(#15,#13);
#12=REPRESENTATION('',(#16),#671);
#13=REPRESENTATION('',(#17),#671);
#14=PROPERTY_DEFINITION('pmi validation property','',#676);
#15=PROPERTY_DEFINITION('pmi validation property','',#676);
#16=VALUE_REPRESENTATION_ITEM('number of annotations',COUNT_MEASURE(0.));
#17=VALUE_REPRESENTATION_ITEM('number of views',COUNT_MEASURE(0.));
#18=SHAPE_REPRESENTATION_RELATIONSHIP('','',#388,#19);
#19=ADVANCED_BREP_SHAPE_REPRESENTATION('',(#386),#671);
#20=LINE('',#618,#28);
#21=LINE('',#622,#29);
#22=LINE('',#624,#30);
#23=LINE('',#627,#31);
#24=LINE('',#628,#32);
#25=LINE('',#632,#33);
#26=LINE('',#634,#34);
#27=LINE('',#636,#35);
#28=VECTOR('',#507,1000.);
#29=VECTOR('',#510,1000.);
#30=VECTOR('',#513,1000.);
#31=VECTOR('',#514,1000.);
#32=VECTOR('',#515,1000.);
#33=VECTOR('',#520,1000.);
#34=VECTOR('',#523,1000.);
#35=VECTOR('',#524,1000.);
#36=TOROIDAL_SURFACE('',#411,5.5,0.5);
#37=PLANE('',#393);
#38=PLANE('',#397);
#39=PLANE('',#401);
#40=PLANE('',#405);
#41=PLANE('',#409);
#42=PLANE('',#415);
#43=PLANE('',#420);
#44=PLANE('',#423);
#45=PLANE('',#426);
#46=PLANE('',#432);
#47=PLANE('',#437);
#48=PLANE('',#440);
#49=PLANE('',#444);
#50=ORIENTED_EDGE('',*,*,#124,.T.);
#51=ORIENTED_EDGE('',*,*,#125,.F.);
#52=ORIENTED_EDGE('',*,*,#126,.T.);
#53=ORIENTED_EDGE('',*,*,#124,.F.);
#54=ORIENTED_EDGE('',*,*,#127,.T.);
#55=ORIENTED_EDGE('',*,*,#126,.F.);
#56=ORIENTED_EDGE('',*,*,#128,.T.);
#57=ORIENTED_EDGE('',*,*,#127,.F.);
#58=ORIENTED_EDGE('',*,*,#129,.T.);
#59=ORIENTED_EDGE('',*,*,#128,.F.);
#60=ORIENTED_EDGE('',*,*,#130,.T.);
#61=ORIENTED_EDGE('',*,*,#129,.F.);
#62=ORIENTED_EDGE('',*,*,#131,.T.);
#63=ORIENTED_EDGE('',*,*,#130,.F.);
#64=ORIENTED_EDGE('',*,*,#132,.T.);
#65=ORIENTED_EDGE('',*,*,#131,.F.);
#66=ORIENTED_EDGE('',*,*,#133,.T.);
#67=ORIENTED_EDGE('',*,*,#132,.F.);
#68=ORIENTED_EDGE('',*,*,#134,.T.);
#69=ORIENTED_EDGE('',*,*,#133,.F.);
#70=ORIENTED_EDGE('',*,*,#135,.T.);
#71=ORIENTED_EDGE('',*,*,#134,.F.);
#72=ORIENTED_EDGE('',*,*,#136,.F.);
#73=ORIENTED_EDGE('',*,*,#135,.F.);
#74=ORIENTED_EDGE('',*,*,#137,.T.);
#75=ORIENTED_EDGE('',*,*,#138,.F.);
#76=ORIENTED_EDGE('',*,*,#136,.T.);
#77=ORIENTED_EDGE('',*,*,#139,.T.);
#78=ORIENTED_EDGE('',*,*,#140,.T.);
#79=ORIENTED_EDGE('',*,*,#141,.T.);
#80=ORIENTED_EDGE('',*,*,#142,.T.);
#81=ORIENTED_EDGE('',*,*,#143,.T.);
#82=ORIENTED_EDGE('',*,*,#144,.F.);
#83=ORIENTED_EDGE('',*,*,#142,.F.);
#84=ORIENTED_EDGE('',*,*,#145,.T.);
#85=ORIENTED_EDGE('',*,*,#146,.T.);
#86=ORIENTED_EDGE('',*,*,#145,.F.);
#87=ORIENTED_EDGE('',*,*,#141,.F.);
#88=ORIENTED_EDGE('',*,*,#147,.T.);
#89=ORIENTED_EDGE('',*,*,#148,.T.);
#90=ORIENTED_EDGE('',*,*,#147,.F.);
#91=ORIENTED_EDGE('',*,*,#140,.F.);
#92=ORIENTED_EDGE('',*,*,#149,.T.);
#93=ORIENTED_EDGE('',*,*,#150,.T.);
#94=ORIENTED_EDGE('',*,*,#149,.F.);
#95=ORIENTED_EDGE('',*,*,#139,.F.);
#96=ORIENTED_EDGE('',*,*,#144,.T.);
#97=ORIENTED_EDGE('',*,*,#151,.T.);
#98=ORIENTED_EDGE('',*,*,#152,.F.);
#99=ORIENTED_EDGE('',*,*,#153,.T.);
#100=ORIENTED_EDGE('',*,*,#150,.F.);
#101=ORIENTED_EDGE('',*,*,#143,.F.);
#102=ORIENTED_EDGE('',*,*,#146,.F.);
#103=ORIENTED_EDGE('',*,*,#148,.F.);
#104=ORIENTED_EDGE('',*,*,#154,.T.);
#105=ORIENTED_EDGE('',*,*,#153,.F.);
#106=ORIENTED_EDGE('',*,*,#155,.T.);
#107=ORIENTED_EDGE('',*,*,#154,.F.);
#108=ORIENTED_EDGE('',*,*,#138,.T.);
#109=ORIENTED_EDGE('',*,*,#155,.F.);
#110=ORIENTED_EDGE('',*,*,#156,.T.);
#111=ORIENTED_EDGE('',*,*,#137,.F.);
#112=ORIENTED_EDGE('',*,*,#157,.T.);
#113=ORIENTED_EDGE('',*,*,#156,.F.);
#114=ORIENTED_EDGE('',*,*,#152,.T.);
#115=ORIENTED_EDGE('',*,*,#157,.F.);
#116=ORIENTED_EDGE('',*,*,#125,.T.);
#117=ORIENTED_EDGE('',*,*,#158,.F.);
#118=ORIENTED_EDGE('',*,*,#159,.T.);
#119=ORIENTED_EDGE('',*,*,#151,.F.);
#120=ORIENTED_EDGE('',*,*,#160,.T.);
#121=ORIENTED_EDGE('',*,*,#159,.F.);
#122=ORIENTED_EDGE('',*,*,#158,.T.);
#123=ORIENTED_EDGE('',*,*,#160,.F.);
#124=EDGE_CURVE('',#161,#161,#194,.T.);
#125=EDGE_CURVE('',#162,#162,#195,.T.);
#126=EDGE_CURVE('',#163,#163,#196,.T.);
#127=EDGE_CURVE('',#164,#164,#197,.T.);
#128=EDGE_CURVE('',#165,#165,#198,.T.);
#129=EDGE_CURVE('',#166,#166,#199,.T.);
#130=EDGE_CURVE('',#167,#167,#200,.T.);
#131=EDGE_CURVE('',#168,#168,#201,.T.);
#132=EDGE_CURVE('',#169,#169,#202,.T.);
#133=EDGE_CURVE('',#170,#170,#203,.T.);
#134=EDGE_CURVE('',#171,#171,#204,.T.);
#135=EDGE_CURVE('',#172,#172,#205,.T.);
#136=EDGE_CURVE('',#173,#173,#206,.F.);
#137=EDGE_CURVE('',#174,#174,#207,.T.);
#138=EDGE_CURVE('',#175,#175,#208,.T.);
#139=EDGE_CURVE('',#176,#177,#209,.T.);
#140=EDGE_CURVE('',#177,#178,#20,.T.);
#141=EDGE_CURVE('',#178,#179,#210,.T.);
#142=EDGE_CURVE('',#179,#176,#21,.T.);
#143=EDGE_CURVE('',#180,#181,#22,.T.);
#144=EDGE_CURVE('',#176,#181,#23,.T.);
#145=EDGE_CURVE('',#179,#180,#24,.T.);
#146=EDGE_CURVE('',#182,#180,#211,.T.);
#147=EDGE_CURVE('',#178,#182,#25,.T.);
#148=EDGE_CURVE('',#183,#182,#26,.T.);
#149=EDGE_CURVE('',#177,#183,#27,.T.);
#150=EDGE_CURVE('',#181,#183,#212,.T.);
#151=EDGE_CURVE('',#184,#184,#213,.T.);
#152=EDGE_CURVE('',#185,#185,#214,.T.);
#153=EDGE_CURVE('',#186,#186,#215,.T.);
#154=EDGE_CURVE('',#187,#187,#216,.T.);
#155=EDGE_CURVE('',#188,#188,#217,.T.);
#156=EDGE_CURVE('',#189,#189,#218,.T.);
#157=EDGE_CURVE('',#190,#190,#219,.T.);
#158=EDGE_CURVE('',#191,#191,#220,.T.);
#159=EDGE_CURVE('',#192,#192,#221,.T.);
#160=EDGE_CURVE('',#193,#193,#222,.T.);
#161=VERTEX_POINT('',#574);
#162=VERTEX_POINT('',#576);
#163=VERTEX_POINT('',#579);
#164=VERTEX_POINT('',#582);
#165=VERTEX_POINT('',#585);
#166=VERTEX_POINT('',#588);
#167=VERTEX_POINT('',#591);
#168=VERTEX_POINT('',#594);
#169=VERTEX_POINT('',#597);
#170=VERTEX_POINT('',#600);
#171=VERTEX_POINT('',#603);
#172=VERTEX_POINT('',#606);
#173=VERTEX_POINT('',#609);
#174=VERTEX_POINT('',#612);
#175=VERTEX_POINT('',#614);
#176=VERTEX_POINT('',#616);
#177=VERTEX_POINT('',#617);
#178=VERTEX_POINT('',#619);
#179=VERTEX_POINT('',#621);
#180=VERTEX_POINT('',#625);
#181=VERTEX_POINT('',#626);
#182=VERTEX_POINT('',#631);
#183=VERTEX_POINT('',#635);
#184=VERTEX_POINT('',#641);
#185=VERTEX_POINT('',#643);
#186=VERTEX_POINT('',#645);
#187=VERTEX_POINT('',#648);
#188=VERTEX_POINT('',#651);
#189=VERTEX_POINT('',#655);
#190=VERTEX_POINT('',#658);
#191=VERTEX_POINT('',#662);
#192=VERTEX_POINT('',#665);
#193=VERTEX_POINT('',#668);
#194=CIRCLE('',#391,4.5);
#195=CIRCLE('',#392,4.5);
#196=CIRCLE('',#394,3.);
#197=CIRCLE('',#396,2.99999999999999);
#198=CIRCLE('',#398,4.5);
#199=CIRCLE('',#400,4.5);
#200=CIRCLE('',#402,3.);
#201=CIRCLE('',#404,3.);
#202=CIRCLE('',#406,4.5);
#203=CIRCLE('',#408,4.5);
#204=CIRCLE('',#410,5.5);
#205=CIRCLE('',#412,6.);
#206=CIRCLE('',#414,6.);
#207=CIRCLE('',#416,1.75);
#208=CIRCLE('',#417,1.75);
#209=CIRCLE('',#418,14.);
#210=CIRCLE('',#419,14.);
#211=CIRCLE('',#422,14.);
#212=CIRCLE('',#425,14.);
#213=CIRCLE('',#427,4.5);
#214=CIRCLE('',#428,3.);
#215=CIRCLE('',#429,3.);
#216=CIRCLE('',#431,3.);
#217=CIRCLE('',#433,1.75);
#218=CIRCLE('',#436,1.75);
#219=CIRCLE('',#438,3.);
#220=CIRCLE('',#441,3.);
#221=CIRCLE('',#443,4.5);
#222=CIRCLE('',#445,3.);
#223=EDGE_LOOP('',(#50));
#224=EDGE_LOOP('',(#51));
#225=EDGE_LOOP('',(#52));
#226=EDGE_LOOP('',(#53));
#227=EDGE_LOOP('',(#54));
#228=EDGE_LOOP('',(#55));
#229=EDGE_LOOP('',(#56));
#230=EDGE_LOOP('',(#57));
#231=EDGE_LOOP('',(#58));
#232=EDGE_LOOP('',(#59));
#233=EDGE_LOOP('',(#60));
#234=EDGE_LOOP('',(#61));
#235=EDGE_LOOP('',(#62));
#236=EDGE_LOOP('',(#63));
#237=EDGE_LOOP('',(#64));
#238=EDGE_LOOP('',(#65));
#239=EDGE_LOOP('',(#66));
#240=EDGE_LOOP('',(#67));
#241=EDGE_LOOP('',(#68));
#242=EDGE_LOOP('',(#69));
#243=EDGE_LOOP('',(#70));
#244=EDGE_LOOP('',(#71));
#245=EDGE_LOOP('',(#72));
#246=EDGE_LOOP('',(#73));
#247=EDGE_LOOP('',(#74));
#248=EDGE_LOOP('',(#75));
#249=EDGE_LOOP('',(#76));
#250=EDGE_LOOP('',(#77,#78,#79,#80));
#251=EDGE_LOOP('',(#81,#82,#83,#84));
#252=EDGE_LOOP('',(#85,#86,#87,#88));
#253=EDGE_LOOP('',(#89,#90,#91,#92));
#254=EDGE_LOOP('',(#93,#94,#95,#96));
#255=EDGE_LOOP('',(#97));
#256=EDGE_LOOP('',(#98));
#257=EDGE_LOOP('',(#99));
#258=EDGE_LOOP('',(#100,#101,#102,#103));
#259=EDGE_LOOP('',(#104));
#260=EDGE_LOOP('',(#105));
#261=EDGE_LOOP('',(#106));
#262=EDGE_LOOP('',(#107));
#263=EDGE_LOOP('',(#108));
#264=EDGE_LOOP('',(#109));
#265=EDGE_LOOP('',(#110));
#266=EDGE_LOOP('',(#111));
#267=EDGE_LOOP('',(#112));
#268=EDGE_LOOP('',(#113));
#269=EDGE_LOOP('',(#114));
#270=EDGE_LOOP('',(#115));
#271=EDGE_LOOP('',(#116));
#272=EDGE_LOOP('',(#117));
#273=EDGE_LOOP('',(#118));
#274=EDGE_LOOP('',(#119));
#275=EDGE_LOOP('',(#120));
#276=EDGE_LOOP('',(#121));
#277=EDGE_LOOP('',(#122));
#278=EDGE_LOOP('',(#123));
#279=FACE_BOUND('',#223,.T.);
#280=FACE_BOUND('',#224,.T.);
#281=FACE_BOUND('',#225,.T.);
#282=FACE_BOUND('',#226,.T.);
#283=FACE_BOUND('',#227,.T.);
#284=FACE_BOUND('',#228,.T.);
#285=FACE_BOUND('',#229,.T.);
#286=FACE_BOUND('',#230,.T.);
#287=FACE_BOUND('',#231,.T.);
#288=FACE_BOUND('',#232,.T.);
#289=FACE_BOUND('',#233,.T.);
#290=FACE_BOUND('',#234,.T.);
#291=FACE_BOUND('',#235,.T.);
#292=FACE_BOUND('',#236,.T.);
#293=FACE_BOUND('',#237,.T.);
#294=FACE_BOUND('',#238,.T.);
#295=FACE_BOUND('',#239,.T.);
#296=FACE_BOUND('',#240,.T.);
#297=FACE_BOUND('',#241,.T.);
#298=FACE_BOUND('',#242,.T.);
#299=FACE_BOUND('',#243,.T.);
#300=FACE_BOUND('',#244,.T.);
#301=FACE_BOUND('',#245,.T.);
#302=FACE_BOUND('',#246,.T.);
#303=FACE_BOUND('',#247,.T.);
#304=FACE_BOUND('',#248,.T.);
#305=FACE_BOUND('',#249,.T.);
#306=FACE_BOUND('',#250,.T.);
#307=FACE_BOUND('',#251,.T.);
#308=FACE_BOUND('',#252,.T.);
#309=FACE_BOUND('',#253,.T.);
#310=FACE_BOUND('',#254,.T.);
#311=FACE_BOUND('',#255,.T.);
#312=FACE_BOUND('',#256,.T.);
#313=FACE_BOUND('',#257,.T.);
#314=FACE_BOUND('',#258,.T.);
#315=FACE_BOUND('',#259,.T.);
#316=FACE_BOUND('',#260,.T.);
#317=FACE_BOUND('',#261,.T.);
#318=FACE_BOUND('',#262,.T.);
#319=FACE_BOUND('',#263,.T.);
#320=FACE_BOUND('',#264,.T.);
#321=FACE_BOUND('',#265,.T.);
#322=FACE_BOUND('',#266,.T.);
#323=FACE_BOUND('',#267,.T.);
#324=FACE_BOUND('',#268,.T.);
#325=FACE_BOUND('',#269,.T.);
#326=FACE_BOUND('',#270,.T.);
#327=FACE_BOUND('',#271,.T.);
#328=FACE_BOUND('',#272,.T.);
#329=FACE_BOUND('',#273,.T.);
#330=FACE_BOUND('',#274,.T.);
#331=FACE_BOUND('',#275,.T.);
#332=FACE_BOUND('',#276,.T.);
#333=FACE_BOUND('',#277,.T.);
#334=FACE_BOUND('',#278,.T.);
#335=CYLINDRICAL_SURFACE('',#390,4.5);
#336=CYLINDRICAL_SURFACE('',#395,2.99999999999999);
#337=CYLINDRICAL_SURFACE('',#399,4.5);
#338=CYLINDRICAL_SURFACE('',#403,3.);
#339=CYLINDRICAL_SURFACE('',#407,4.5);
#340=CYLINDRICAL_SURFACE('',#413,6.);
#341=CYLINDRICAL_SURFACE('',#421,14.);
#342=CYLINDRICAL_SURFACE('',#424,14.);
#343=CYLINDRICAL_SURFACE('',#430,3.);
#344=CYLINDRICAL_SURFACE('',#434,1.75);
#345=CYLINDRICAL_SURFACE('',#435,1.75);
#346=CYLINDRICAL_SURFACE('',#439,3.);
#347=CYLINDRICAL_SURFACE('',#442,4.5);
#348=CYLINDRICAL_SURFACE('',#446,3.);
#349=ADVANCED_FACE('',(#279,#280),#335,.F.);
#350=ADVANCED_FACE('',(#281,#282),#37,.T.);
#351=ADVANCED_FACE('',(#283,#284),#336,.F.);
#352=ADVANCED_FACE('',(#285,#286),#38,.T.);
#353=ADVANCED_FACE('',(#287,#288),#337,.F.);
#354=ADVANCED_FACE('',(#289,#290),#39,.T.);
#355=ADVANCED_FACE('',(#291,#292),#338,.F.);
#356=ADVANCED_FACE('',(#293,#294),#40,.T.);
#357=ADVANCED_FACE('',(#295,#296),#339,.F.);
#358=ADVANCED_FACE('',(#297,#298),#41,.T.);
#359=ADVANCED_FACE('',(#299,#300),#36,.T.);
#360=ADVANCED_FACE('',(#301,#302),#340,.T.);
#361=ADVANCED_FACE('',(#303,#304,#305,#306),#42,.T.);
#362=ADVANCED_FACE('',(#307),#43,.F.);
#363=ADVANCED_FACE('',(#308),#341,.T.);
#364=ADVANCED_FACE('',(#309),#44,.F.);
#365=ADVANCED_FACE('',(#310),#342,.T.);
#366=ADVANCED_FACE('',(#311,#312,#313,#314),#45,.T.);
#367=ADVANCED_FACE('',(#315,#316),#343,.F.);
#368=ADVANCED_FACE('',(#317,#318),#46,.T.);
#369=ADVANCED_FACE('',(#319,#320),#344,.F.);
#370=ADVANCED_FACE('',(#321,#322),#345,.F.);
#371=ADVANCED_FACE('',(#323,#324),#47,.T.);
#372=ADVANCED_FACE('',(#325,#326),#346,.F.);
#373=ADVANCED_FACE('',(#327,#328),#48,.T.);
#374=ADVANCED_FACE('',(#329,#330),#347,.F.);
#375=ADVANCED_FACE('',(#331,#332),#49,.T.);
#376=ADVANCED_FACE('',(#333,#334),#348,.F.);
#377=CLOSED_SHELL('',(#349,#350,#351,#352,#353,#354,#355,#356,#357,#358,
#359,#360,#361,#362,#363,#364,#365,#366,#367,#368,#369,#370,#371,#372,#373,
#374,#375,#376));
#378=STYLED_ITEM('',(#379),#386);
#379=PRESENTATION_STYLE_ASSIGNMENT((#380));
#380=SURFACE_STYLE_USAGE(.BOTH.,#381);
#381=SURFACE_SIDE_STYLE('',(#382));
#382=SURFACE_STYLE_FILL_AREA(#383);
#383=FILL_AREA_STYLE('',(#384));
#384=FILL_AREA_STYLE_COLOUR('',#385);
#385=COLOUR_RGB('',0.689999997615814,0.689999997615814,0.689999997615814);
#386=MANIFOLD_SOLID_BREP('STH6',#377);
#387=SHAPE_DEFINITION_REPRESENTATION(#676,#388);
#388=SHAPE_REPRESENTATION('STH6',(#389),#671);
#389=AXIS2_PLACEMENT_3D('',#571,#447,#448);
#390=AXIS2_PLACEMENT_3D('',#572,#449,#450);
#391=AXIS2_PLACEMENT_3D('',#573,#451,#452);
#392=AXIS2_PLACEMENT_3D('',#575,#453,#454);
#393=AXIS2_PLACEMENT_3D('',#577,#455,#456);
#394=AXIS2_PLACEMENT_3D('',#578,#457,#458);
#395=AXIS2_PLACEMENT_3D('',#580,#459,#460);
#396=AXIS2_PLACEMENT_3D('',#581,#461,#462);
#397=AXIS2_PLACEMENT_3D('',#583,#463,#464);
#398=AXIS2_PLACEMENT_3D('',#584,#465,#466);
#399=AXIS2_PLACEMENT_3D('',#586,#467,#468);
#400=AXIS2_PLACEMENT_3D('',#587,#469,#470);
#401=AXIS2_PLACEMENT_3D('',#589,#471,#472);
#402=AXIS2_PLACEMENT_3D('',#590,#473,#474);
#403=AXIS2_PLACEMENT_3D('',#592,#475,#476);
#404=AXIS2_PLACEMENT_3D('',#593,#477,#478);
#405=AXIS2_PLACEMENT_3D('',#595,#479,#480);
#406=AXIS2_PLACEMENT_3D('',#596,#481,#482);
#407=AXIS2_PLACEMENT_3D('',#598,#483,#484);
#408=AXIS2_PLACEMENT_3D('',#599,#485,#486);
#409=AXIS2_PLACEMENT_3D('',#601,#487,#488);
#410=AXIS2_PLACEMENT_3D('',#602,#489,#490);
#411=AXIS2_PLACEMENT_3D('',#604,#491,#492);
#412=AXIS2_PLACEMENT_3D('',#605,#493,#494);
#413=AXIS2_PLACEMENT_3D('',#607,#495,#496);
#414=AXIS2_PLACEMENT_3D('',#608,#497,#498);
#415=AXIS2_PLACEMENT_3D('',#610,#499,#500);
#416=AXIS2_PLACEMENT_3D('',#611,#501,#502);
#417=AXIS2_PLACEMENT_3D('',#613,#503,#504);
#418=AXIS2_PLACEMENT_3D('',#615,#505,#506);
#419=AXIS2_PLACEMENT_3D('',#620,#508,#509);
#420=AXIS2_PLACEMENT_3D('',#623,#511,#512);
#421=AXIS2_PLACEMENT_3D('',#629,#516,#517);
#422=AXIS2_PLACEMENT_3D('',#630,#518,#519);
#423=AXIS2_PLACEMENT_3D('',#633,#521,#522);
#424=AXIS2_PLACEMENT_3D('',#637,#525,#526);
#425=AXIS2_PLACEMENT_3D('',#638,#527,#528);
#426=AXIS2_PLACEMENT_3D('',#639,#529,#530);
#427=AXIS2_PLACEMENT_3D('',#640,#531,#532);
#428=AXIS2_PLACEMENT_3D('',#642,#533,#534);
#429=AXIS2_PLACEMENT_3D('',#644,#535,#536);
#430=AXIS2_PLACEMENT_3D('',#646,#537,#538);
#431=AXIS2_PLACEMENT_3D('',#647,#539,#540);
#432=AXIS2_PLACEMENT_3D('',#649,#541,#542);
#433=AXIS2_PLACEMENT_3D('',#650,#543,#544);
#434=AXIS2_PLACEMENT_3D('',#652,#545,#546);
#435=AXIS2_PLACEMENT_3D('',#653,#547,#548);
#436=AXIS2_PLACEMENT_3D('',#654,#549,#550);
#437=AXIS2_PLACEMENT_3D('',#656,#551,#552);
#438=AXIS2_PLACEMENT_3D('',#657,#553,#554);
#439=AXIS2_PLACEMENT_3D('',#659,#555,#556);
#440=AXIS2_PLACEMENT_3D('',#660,#557,#558);
#441=AXIS2_PLACEMENT_3D('',#661,#559,#560);
#442=AXIS2_PLACEMENT_3D('',#663,#561,#562);
#443=AXIS2_PLACEMENT_3D('',#664,#563,#564);
#444=AXIS2_PLACEMENT_3D('',#666,#565,#566);
#445=AXIS2_PLACEMENT_3D('',#667,#567,#568);
#446=AXIS2_PLACEMENT_3D('',#669,#569,#570);
#447=DIRECTION('',(0.,0.,1.));
#448=DIRECTION('',(1.,0.,0.));
#449=DIRECTION('',(1.,0.,0.));
#450=DIRECTION('',(0.,0.,-1.));
#451=DIRECTION('',(1.,0.,0.));
#452=DIRECTION('',(0.,0.,-1.));
#453=DIRECTION('',(1.,0.,0.));
#454=DIRECTION('',(0.,0.,-1.));
#455=DIRECTION('',(-1.,0.,0.));
#456=DIRECTION('',(0.,0.,1.));
#457=DIRECTION('',(1.,0.,0.));
#458=DIRECTION('',(0.,0.,-1.));
#459=DIRECTION('',(1.,0.,0.));
#460=DIRECTION('',(0.,0.,-1.));
#461=DIRECTION('',(1.,0.,0.));
#462=DIRECTION('',(0.,0.,-1.));
#463=DIRECTION('',(1.,0.,0.));
#464=DIRECTION('',(0.,0.,-1.));
#465=DIRECTION('',(1.,0.,0.));
#466=DIRECTION('',(0.,0.,-1.));
#467=DIRECTION('',(1.,0.,0.));
#468=DIRECTION('',(0.,0.,-1.));
#469=DIRECTION('',(1.,0.,0.));
#470=DIRECTION('',(0.,0.,-1.));
#471=DIRECTION('',(-1.,0.,0.));
#472=DIRECTION('',(0.,0.,1.));
#473=DIRECTION('',(1.,0.,0.));
#474=DIRECTION('',(0.,0.,-1.));
#475=DIRECTION('',(1.,0.,0.));
#476=DIRECTION('',(0.,0.,-1.));
#477=DIRECTION('',(1.,0.,0.));
#478=DIRECTION('',(0.,0.,-1.));
#479=DIRECTION('',(1.,0.,0.));
#480=DIRECTION('',(0.,0.,-1.));
#481=DIRECTION('',(1.,0.,0.));
#482=DIRECTION('',(0.,0.,-1.));
#483=DIRECTION('',(1.,0.,0.));
#484=DIRECTION('',(0.,0.,-1.));
#485=DIRECTION('',(1.,0.,0.));
#486=DIRECTION('',(0.,0.,-1.));
#487=DIRECTION('',(1.,0.,0.));
#488=DIRECTION('',(0.,0.,-1.));
#489=DIRECTION('',(1.,0.,0.));
#490=DIRECTION('',(0.,0.,-1.));
#491=DIRECTION('',(1.,0.,0.));
#492=DIRECTION('',(0.,0.,-1.));
#493=DIRECTION('',(1.,0.,0.));
#494=DIRECTION('',(0.,0.,-1.));
#495=DIRECTION('',(1.,0.,0.));
#496=DIRECTION('',(0.,0.,-1.));
#497=DIRECTION('',(1.,0.,0.));
#498=DIRECTION('',(0.,0.,-1.));
#499=DIRECTION('',(1.,0.,0.));
#500=DIRECTION('',(0.,0.,-1.));
#501=DIRECTION('',(-1.,0.,0.));
#502=DIRECTION('',(0.,0.,1.));
#503=DIRECTION('',(1.,0.,0.));
#504=DIRECTION('',(0.,0.,-1.));
#505=DIRECTION('',(1.,0.,0.));
#506=DIRECTION('',(0.,0.,-1.));
#507=DIRECTION('',(0.,-1.,0.));
#508=DIRECTION('',(1.,0.,0.));
#509=DIRECTION('',(0.,0.,-1.));
#510=DIRECTION('',(0.,1.,0.));
#511=DIRECTION('',(0.,0.,1.));
#512=DIRECTION('',(1.,0.,0.));
#513=DIRECTION('',(0.,1.,0.));
#514=DIRECTION('',(-1.,0.,0.));
#515=DIRECTION('',(-1.,0.,0.));
#516=DIRECTION('',(-1.,0.,0.));
#517=DIRECTION('',(0.,0.,1.));
#518=DIRECTION('',(1.,0.,0.));
#519=DIRECTION('',(0.,0.,-1.));
#520=DIRECTION('',(-1.,0.,0.));
#521=DIRECTION('',(0.,0.,-1.));
#522=DIRECTION('',(-1.,0.,0.));
#523=DIRECTION('',(0.,-1.,0.));
#524=DIRECTION('',(-1.,0.,0.));
#525=DIRECTION('',(-1.,0.,0.));
#526=DIRECTION('',(0.,0.,1.));
#527=DIRECTION('',(1.,0.,0.));
#528=DIRECTION('',(0.,0.,-1.));
#529=DIRECTION('',(-1.,0.,0.));
#530=DIRECTION('',(0.,0.,1.));
#531=DIRECTION('',(1.,0.,0.));
#532=DIRECTION('',(0.,0.,-1.));
#533=DIRECTION('',(-1.,0.,0.));
#534=DIRECTION('',(0.,0.,1.));
#535=DIRECTION('',(1.,0.,0.));
#536=DIRECTION('',(0.,0.,-1.));
#537=DIRECTION('',(1.,0.,0.));
#538=DIRECTION('',(0.,0.,-1.));
#539=DIRECTION('',(1.,0.,0.));
#540=DIRECTION('',(0.,0.,-1.));
#541=DIRECTION('',(-1.,0.,0.));
#542=DIRECTION('',(0.,0.,1.));
#543=DIRECTION('',(1.,0.,0.));
#544=DIRECTION('',(0.,0.,-1.));
#545=DIRECTION('',(1.,0.,0.));
#546=DIRECTION('',(0.,0.,-1.));
#547=DIRECTION('',(-1.,0.,0.));
#548=DIRECTION('',(0.,0.,1.));
#549=DIRECTION('',(-1.,0.,0.));
#550=DIRECTION('',(0.,0.,1.));
#551=DIRECTION('',(-1.,0.,0.));
#552=DIRECTION('',(0.,0.,1.));
#553=DIRECTION('',(-1.,0.,0.));
#554=DIRECTION('',(0.,0.,1.));
#555=DIRECTION('',(-1.,0.,0.));
#556=DIRECTION('',(0.,0.,1.));
#557=DIRECTION('',(1.,0.,0.));
#558=DIRECTION('',(0.,0.,-1.));
#559=DIRECTION('',(1.,0.,0.));
#560=DIRECTION('',(0.,0.,-1.));
#561=DIRECTION('',(1.,0.,0.));
#562=DIRECTION('',(0.,0.,-1.));
#563=DIRECTION('',(1.,0.,0.));
#564=DIRECTION('',(0.,0.,-1.));
#565=DIRECTION('',(-1.,0.,0.));
#566=DIRECTION('',(0.,0.,1.));
#567=DIRECTION('',(1.,0.,0.));
#568=DIRECTION('',(0.,0.,-1.));
#569=DIRECTION('',(1.,0.,0.));
#570=DIRECTION('',(0.,0.,-1.));
#571=CARTESIAN_POINT('',(0.,0.,0.));
#572=CARTESIAN_POINT('',(20.,0.,0.));
#573=CARTESIAN_POINT('',(6.60000000000002,0.,0.));
#574=CARTESIAN_POINT('',(6.60000000000002,0.,-4.5));
#575=CARTESIAN_POINT('',(1.6,0.,0.));
#576=CARTESIAN_POINT('',(1.6,0.,-4.5));
#577=CARTESIAN_POINT('',(6.60000000000002,4.5,0.));
#578=CARTESIAN_POINT('',(6.60000000000002,0.,0.));
#579=CARTESIAN_POINT('',(6.60000000000002,0.,-3.));
#580=CARTESIAN_POINT('',(20.,0.,0.));
#581=CARTESIAN_POINT('',(13.4,0.,0.));
#582=CARTESIAN_POINT('',(13.4,0.,-2.99999999999999));
#583=CARTESIAN_POINT('',(13.4,2.99999999999999,0.));
#584=CARTESIAN_POINT('',(13.4,0.,0.));
#585=CARTESIAN_POINT('',(13.4,0.,-4.5));
#586=CARTESIAN_POINT('',(20.,0.,0.));
#587=CARTESIAN_POINT('',(18.4,0.,0.));
#588=CARTESIAN_POINT('',(18.4,0.,-4.5));
#589=CARTESIAN_POINT('',(18.4,4.5,0.));
#590=CARTESIAN_POINT('',(18.4,0.,0.));
#591=CARTESIAN_POINT('',(18.4,0.,-3.));
#592=CARTESIAN_POINT('',(20.,0.,0.));
#593=CARTESIAN_POINT('',(19.,0.,0.));
#594=CARTESIAN_POINT('',(19.,0.,-3.));
#595=CARTESIAN_POINT('',(19.,3.,0.));
#596=CARTESIAN_POINT('',(19.,0.,0.));
#597=CARTESIAN_POINT('',(19.,0.,-4.5));
#598=CARTESIAN_POINT('',(20.,0.,0.));
#599=CARTESIAN_POINT('',(20.,0.,0.));
#600=CARTESIAN_POINT('',(20.,0.,-4.5));
#601=CARTESIAN_POINT('',(20.,4.5,0.));
#602=CARTESIAN_POINT('',(20.,0.,0.));
#603=CARTESIAN_POINT('',(20.,0.,-5.5));
#604=CARTESIAN_POINT('',(19.5,0.,0.));
#605=CARTESIAN_POINT('',(19.5,0.,0.));
#606=CARTESIAN_POINT('',(19.5,0.,-6.));
#607=CARTESIAN_POINT('',(20.,0.,0.));
#608=CARTESIAN_POINT('',(5.,0.,0.));
#609=CARTESIAN_POINT('',(5.,0.,-6.));
#610=CARTESIAN_POINT('',(5.,-1.73472347597681E-15,0.));
#611=CARTESIAN_POINT('',(5.,-10.,0.));
#612=CARTESIAN_POINT('',(5.,-10.,1.75));
#613=CARTESIAN_POINT('',(5.,10.,0.));
#614=CARTESIAN_POINT('',(5.,10.,-1.75));
#615=CARTESIAN_POINT('',(5.,-1.73472347597681E-15,0.));
#616=CARTESIAN_POINT('',(5.,10.7238052947636,-9.));
#617=CARTESIAN_POINT('',(5.,10.7238052947636,9.));
#618=CARTESIAN_POINT('',(5.,10.7238052947636,9.));
#619=CARTESIAN_POINT('',(5.,-10.7238052947636,9.));
#620=CARTESIAN_POINT('',(5.,3.46944695195361E-15,0.));
#621=CARTESIAN_POINT('',(5.,-10.7238052947636,-9.));
#622=CARTESIAN_POINT('',(5.,-10.7238052947636,-9.));
#623=CARTESIAN_POINT('',(5.,-10.7238052947636,-9.));
#624=CARTESIAN_POINT('',(0.,-10.7238052947636,-9.));
#625=CARTESIAN_POINT('',(0.,-10.7238052947636,-9.));
#626=CARTESIAN_POINT('',(0.,10.7238052947636,-9.));
#627=CARTESIAN_POINT('',(5.,10.7238052947636,-9.));
#628=CARTESIAN_POINT('',(5.,-10.7238052947636,-9.));
#629=CARTESIAN_POINT('',(5.,3.46944695195361E-15,0.));
#630=CARTESIAN_POINT('',(0.,3.46944695195361E-15,0.));
#631=CARTESIAN_POINT('',(0.,-10.7238052947636,9.));
#632=CARTESIAN_POINT('',(5.,-10.7238052947636,9.));
#633=CARTESIAN_POINT('',(5.,10.7238052947636,9.));
#634=CARTESIAN_POINT('',(0.,10.7238052947636,9.));
#635=CARTESIAN_POINT('',(0.,10.7238052947636,9.));
#636=CARTESIAN_POINT('',(5.,10.7238052947636,9.));
#637=CARTESIAN_POINT('',(5.,-1.73472347597681E-15,0.));
#638=CARTESIAN_POINT('',(0.,-1.73472347597681E-15,0.));
#639=CARTESIAN_POINT('',(0.,6.,0.));
#640=CARTESIAN_POINT('',(0.,0.,0.));
#641=CARTESIAN_POINT('',(0.,0.,-4.5));
#642=CARTESIAN_POINT('',(4.33680868994202E-16,-10.,0.));
#643=CARTESIAN_POINT('',(4.33680868994202E-16,-10.,3.));
#644=CARTESIAN_POINT('',(0.,10.,0.));
#645=CARTESIAN_POINT('',(0.,10.,-3.));
#646=CARTESIAN_POINT('',(5.,10.,0.));
#647=CARTESIAN_POINT('',(3.09999999999997,10.,0.));
#648=CARTESIAN_POINT('',(3.09999999999997,10.,-3.));
#649=CARTESIAN_POINT('',(3.09999999999997,13.,0.));
#650=CARTESIAN_POINT('',(3.09999999999997,10.,0.));
#651=CARTESIAN_POINT('',(3.09999999999997,10.,-1.75));
#652=CARTESIAN_POINT('',(5.,10.,0.));
#653=CARTESIAN_POINT('',(0.,-10.,0.));
#654=CARTESIAN_POINT('',(3.09999999999997,-10.,0.));
#655=CARTESIAN_POINT('',(3.09999999999997,-10.,1.75));
#656=CARTESIAN_POINT('',(3.09999999999997,-11.75,0.));
#657=CARTESIAN_POINT('',(3.09999999999997,-10.,0.));
#658=CARTESIAN_POINT('',(3.09999999999997,-10.,3.));
#659=CARTESIAN_POINT('',(0.,-10.,0.));
#660=CARTESIAN_POINT('',(1.6,3.,0.));
#661=CARTESIAN_POINT('',(1.6,0.,0.));
#662=CARTESIAN_POINT('',(1.6,0.,-3.));
#663=CARTESIAN_POINT('',(20.,0.,0.));
#664=CARTESIAN_POINT('',(1.,0.,0.));
#665=CARTESIAN_POINT('',(1.,0.,-4.5));
#666=CARTESIAN_POINT('',(1.,4.5,0.));
#667=CARTESIAN_POINT('',(1.,0.,0.));
#668=CARTESIAN_POINT('',(1.,0.,-3.));
#669=CARTESIAN_POINT('',(20.,0.,0.));
#670=MECHANICAL_DESIGN_GEOMETRIC_PRESENTATION_REPRESENTATION('',(#378),
#671);
#671=(
GEOMETRIC_REPRESENTATION_CONTEXT(3)
GLOBAL_UNCERTAINTY_ASSIGNED_CONTEXT((#672))
GLOBAL_UNIT_ASSIGNED_CONTEXT((#675,#674,#673))
REPRESENTATION_CONTEXT('STH6','TOP_LEVEL_ASSEMBLY_PART')
);
#672=UNCERTAINTY_MEASURE_WITH_UNIT(LENGTH_MEASURE(0.005),#675,
'DISTANCE_ACCURACY_VALUE','Maximum Tolerance applied to model');
#673=(
NAMED_UNIT(*)
SI_UNIT($,.STERADIAN.)
SOLID_ANGLE_UNIT()
);
#674=(
NAMED_UNIT(*)
PLANE_ANGLE_UNIT()
SI_UNIT($,.RADIAN.)
);
#675=(
LENGTH_UNIT()
NAMED_UNIT(*)
SI_UNIT(.MILLI.,.METRE.)
);
#676=PRODUCT_DEFINITION_SHAPE('','',#677);
#677=PRODUCT_DEFINITION('','',#679,#678);
#678=DESIGN_CONTEXT('',#685,'design');
#679=PRODUCT_DEFINITION_FORMATION_WITH_SPECIFIED_SOURCE('','',#681,
 .NOT_KNOWN.);
#680=PRODUCT_RELATED_PRODUCT_CATEGORY('','',(#681));
#681=PRODUCT('STH6','STH6','STH6',(#683));
#682=PRODUCT_CATEGORY('','');
#683=MECHANICAL_CONTEXT('',#685,'mechanical');
#684=APPLICATION_PROTOCOL_DEFINITION('international standard',
'config_control_design',2010,#685);
#685=APPLICATION_CONTEXT(
'configuration controlled 3D designs of mechanical parts and assemblie
s');
ENDSEC;
END-ISO-10303-21;
